Login or Register to remove this ad. | Advertise Here

Epilogue (Halo: Reach) Guitar Tab

Submitted: Feb 28, 2011 by A Dead Fly

0
Download | Listen
Game: Halo: Reach
Composer(s): Michael Salvatori, Martin ODonnel
Style: Transcription
Series: Halo

AutoScroll: Slow | Medium | Fast
Artist: Martin O'Donnell and Michael Salvatori
Album: Halo: Reach
Song: Epilogue
Tabbed by: A Dead Fly

Song transcribed for one guitar with standard tuning.

The Part from 0:55 - 2:05 isn't playable on guitar so it has been left out.

0:00 - 0:55

e|----------------|----------------|----------------|----------------|
B|----------------|----------------|----------------|----------------|
G|--7-------------|--7---5---------|--7-------------|--7-----5-------|
D|--7--------7----|----------------|--7--7-----7----|--7-----6-------|
A|--5-----9-----9-|--5-------------|--5-----9-----9-|--5--9------6---|
E|----------------|----------------|--5-------------|----------------|

e|----------------|----------------|----------------|----------------|
B|----------------|--4-------------|----------------|--------4--3----|
G|-7---------7----|--5-------------|--------------3-|-5-----------3--|
D|-7---7-----7----|--6-------------|-----------5----|-5---5----------|
A|-5------9--5--9-|--6-------------|----------------|-3--------------|
E|-5--------------|--4-------------|----------------|----------------|

e|----------------|----------------|-3------10-8----|------------6---|
B|----------------|--------4--6----|--------------8-|--6--4--6-------|
G|--0-----------3-|-5------------3-|-3--------------|--5-------------|
D|--3---1----5----|-5---5-----3----|-1--------------|--3-------------|
A|--3-------------|-3---3----------|------6----5----|--3-------------|
E|--3-------------|----------------|----------------|----------------|

e|--8--------8-10-|-11---6-------6-|----------------|--8-------------|
B|----------------|-11---6---------|--6-------------|----------------|
G|----------------|-15---10---5----|--5-------------|--5-------------|
D|--6----8--------|-13---8---------|--3-------------|----------------|
A|----------------|-13---8---------|--3-------------|--------1-----3-|
E|----------------|-11---6---------|-----------3----|-----------3----|

e|----------------|-8--------8--10-|--------------6-|--8-------------|
B|----------------|-8--------8-----|----------------|--8-------------|
G|--5-------------|-12---5---12----|--5----7--------|--12------------|
D|----------------|-10---5---10----|--6----8--------|--10------------|
A|--3----5--------|-10---5---10----|--6----8--------|--10------------|
E|------------3---|-8----3---8-----|--4----6---6----|--8-------------|

e|----20----------|
B|---20-----------|
G|--21------------|
D|-22-------------|
A|----------------|
E|----------------|

2:08 - End

e|--------8-------|----------------|--6-------------|--9-----9---8---|
B|--8-----9-------|--8-----6-------|--6-----9-------|--11----9-------|
G|--10----8-------|--6-----8-------|--8-----11------|--10----8-------|
D|--10----10------|--6-----8-------|--8-----11------|--8-----6-------|
A|--8-----11------|--8-----6-------|--8-----9-------|----------------|
E|----------------|--9-------------|----------------|----------------|

e|--8------6------|--6------4------|--4-------------|--2-------------|
B|--7------7------|--6------6------|--5-------------|--2-------------|
G|--X------6------|--6------6------|--4-------------|--3-------------|
D|--10-----8------|--8-------------|--6-------------|--4-------------|
A|--9------9------|--8-------------|--7-------------|--4-------------|
E|----------------|----------------|--------7---0---|--2-------------|

e|--------8-------|----------------|--6-------------|--9-----9---8---|
B|--8-----9-------|--8-----6-------|--6-----9-------|--11----9-------|
G|--10----8-------|--6-----8-------|--8-----11------|--10----8-------|
D|--10----10------|--6-----8-------|--8-----11------|--8-----6-------|
A|--8-----11------|--8-----6-------|--8-----9-------|----------------|
E|----------------|--9-------------|----------------|----------------|

e|--8------6------|--6------4------|--4-------------|--2-------------|
B|--7------7------|--6------6------|--5-------------|--2-------------|
G|--X------6------|--6------6------|--4-------------|--3-------------|
D|--10-----8------|--8-------------|--6-------------|--4-------------|
A|--9------9------|--8-------------|--7-------------|--4-------------|
E|----------------|----------------|--------7---0---|--2-------------|

e|--------8-------|----------------|--6-----9-------|--11----13------|
B|--8-----9-------|--8-----6-------|--6-----9-------|--13----14------|
G|--10----8-------|--6-----8-------|--8-----10------|--13----13------|
D|--10----10------|--6-----8-------|--8-----11------|--13----15------|
A|--8-----11------|--8-----6-------|--8-----11------|--11----16------|
E|----------------|--9-------------|--------9-------|----------------|

e|--------14------|--16------------|--11------------|--9-------------|
B|--------14------|--16----14------|--11------------|--9-------------|
G|--------15------|--17----15------|--12------------|--11------------|
D|--------16------|--18----16------|--13------------|--11------------|
A|--14----14------|--18----16------|--13------------|----------------|
E|--------14------|--16----14------|--11-----14-----|----------------|

e|----------------|--11<----12-----|--9-------------|--------11<-----|
B|----------------|--11<----14-----|--10------------|----------------|
G|----------------|--12<----14-----|--9-------------|----------------|
D|----------------|--13<----14-----|----------------|----------------|
A|----------------|----------------|----------------|----------------|
E|----------------|----------------|----------------|----------------|

e|--11-----9------|--12------------|--------15<-----|--15------------|
B|--11-----10-----|----------------|----------------|--16----16------|
G|--12-----9------|----------------|----------------|--15----14------|
D|--13-----11-----|----------------|----------------|--17----13------|
A|---------12-----|--12------------|----------------|--18----16------|
E|----------------|----------------|----------------|----------------|

e|--17------------|--18<-----------|--18------------|----------------|
B|--X-------------|----------------|--20------------|----------------|
G|--14------------|----------------|--20------------|----------------|
D|--X-------------|----------------|--20------------|----------------|
A|--16------------|----------------|----------------|----------------|
E|----------------|----------------|----------------|----------------|

Email questions to azlizard13@yahoo.com

Please give me credit if you use this tab for a video