Login or Register to remove this ad. | Advertise Here

Temple of Tolerance (Guild Wars) Guitar Tab

Submitted: Aug 21, 2010 by Randolf

5
Average: 5 (1 vote)
Download | Listen
Game: Guild Wars
Composer(s): Jeremy Soule
Style: 2 or more instruments, Arrangement, Fingerstyle, Natural harmonics

Click here for a video example.

AutoScroll: Slow | Medium | Fast
Temple of Tolerance
Guild Wars
Composed by Jeremy Soule
Arranged by Pim and Daan van den Berg

Guitar 1


     S S E  E  S S E  E     S S E  E  S S E  E     S S E  E  S S E  E   
E||--------------3-3--3--|--------------1-1--1--|--------------3-3--3--|
B||----5-5--5------------|----3-3--3--3---------|----5-5--5------------|
G||--2---------5---------|--0-------------------|--2---------5---------|
D||----------------------|----------------------|----------------------|
A||----------------------|----------------------|----------------------|
D||----------------------|----------------------|----------------------|


  S S E  E  S S E  E     S S E  E  S S E  E     S S E  E  S S E  E   
--------------5-5--5--|--------------3-3--3--|--------------1-1--1--|
----3-3--3--3---------|----5-5--5------------|----3-3--3--3---------|
--0-------------------|--2---------5---------|--0-------------------|
----------------------|----------------------|----------------------|
----------------------|----------------------|----------------------|
----------------------|----------------------|----------------------|


  S S E  S S E  S S E     S S E  S S E  S S E     S S E  E  E  E  E   
-----------3-3--3-5-5--|--5-7-7--3-5-5--5-7-7--|--3-5-5--5--5--5--5--|
----5-5--5-------------|-----------------------|---------------------|
--2--------------------|-----------------------|---------------------|
-----------------------|-----------------------|---------------------|
-----------------------|-----------------------|---------------------|
-----------------------|-----------------------|---------------------|


  E  E  E  E  E  E     E  Q    Q.        Q    S  S Q.        E  Q     Q.      
--5--5--5--5--5--5--|--5--8----7------|--L----5p-3-5------|--5--8----10------|
--------------------|-----------------|-------------------|------------------|
--------------------|-----------------|-------------------|------------------|
--------------------|-----------------|-------------------|------------------|
--------------------|-----------------|-------------------|------------------|
--------------------|-----------------|-------------------|------------------|


  Q    S  S Q.        E  S  E.   Q.        E   S  S S  S  Q    E   
--L----8p-7-5------|--5--8-10---12------|--L--10p-8-7h-8-10----8--|
-------------------|--------------------|-------------------------|
-------------------|--------------------|-------------------------|
-------------------|--------------------|-------------------------|
-------------------|--------------------|-------------------------|
-------------------|--------------------|-------------------------|


   H.               H.              E  Q    Q.        E  E  E  Q.      
--10------------|---L------------|--5--8----7------|--L--5--3--5------|
----------------|----------------|-----------------|------------------|
--10------------|---L------------|-----------------|------------------|
----------------|----------------|-----------------|------------------|
----------------|----------------|-----------------|------------------|
----------------|----------------|-----------------|------------------|


  E  Q     Q.        E  E  E  Q.        E  Q     Q.        E  E   E   Q.      
--5--8----10------|--L--8--7--5------|--5--8----10------|--L--8--10--12------|
------------------|------------------|------------------|--------------------|
------------------|------------------|------------------|--------------------|
------------------|------------------|------------------|--------------------|
------------------|------------------|------------------|--------------------|
------------------|------------------|------------------|--------------------|


   H.              Q.     Q.        Q.     Q.        Q.     Q.      
--13------------|---------8------|--7------5------|--L------8------|
----------------|---------5------|----------------|---------5------|
----------------|----------------|--7------2------|--L-------------|
----------------|----------------|--5------3------|--L-------------|
----------------|---------0------|----------------|---------0------|
----------------|----------------|----------------|----------------|


   E  E  E  Q.         Q.      Q.        Q.     Q.         Q.      Q.      
--10--7--7--8------|--12------10------|--L------8------|--12------10------|
-------------------|------------------|----------------|------------------|
-------------------|--12------10------|--L------9------|--12------10------|
-------------------|------------------|----------------|------------------|
-------------------|------------------|----------------|------------------|
-------------------|------------------|----------------|------------------|


  Q.     Q    E     Q.     Q.        Q.     Q.        Q.     Q.      
--L------8----7--|--5------7------|--8-------------|--5------7------|
-----------------|--5-------------|--5------6------|--5-------------|
--L------9----7--|--5------7------|---------7------|--5------7------|
-----------------|---------5------|----------------|---------5------|
-----------------|--0-------------|--0-------------|--0-------------|
-----------------|----------------|---------0------|----------------|


                                                       NH                    
  Q.     Q.        Q.     Q.        Q.     Q.          E  S  S  S  S Q.      
--8------5------|--5-------------|--L-------------|-------8p-5h-8p-5-7------|
--5------5------|----------------|----------------|-------------------------|
---------5------|--2-------------|--L-------------|-------------------------|
----------------|--3------2------|--3------2------|--<>7--------------------|
--0------0------|----------------|----------------|-------------------------|
----------------|----------------|----------------|-------------------------|


  E  S  S  S  S Q.        E  S  S  S  S  Q.        E  S  S  S S E  E  E   
--L--5p-3h-5p-3-5------|--L--8p-5h-8p-5-10------|--L--8p-7p-5-7-8--7--5--|
-----------------------|------------------------|------------------------|
-----------------------|------------------------|------------------------|
-----------------------|------------------------|------------------------|
-----------------------|------------------------|------------------------|
-----------------------|------------------------|------------------------|


  E  E  E  E  E  E     E  E  E  E  E  E     E  E  E  E  E  E   
--------------------|--------------------|--------------------|
--------1--------0--|--------------------|--------------------|
--------------------|-----------------2--|--------------------|
-----2--------0-----|--------3-----3-----|-----------0--------|
--0-----------------|-----0--------------|--------0-----0-----|
-----------5--------|--0--------3--------|--0--3-----------3--|


  E  E  E  E  E  E     E  Q    Q.        E  E  E  Q.        Q.     Q    E   
--------------------|-----1----0------|--L---------------|--5------L-------|
--------------------|--3--------------|-----3--1--3------|--------------3--|
--------------------|-----------------|------------------|-----------------|
-----------0--------|-----------------|------------------|-----------------|
--------0-----0-----|-----------------|------------------|-----------------|
--0--3-----------3--|-----------------|------------------|-----------------|


  H.               E   Q     Q.        E   E   E   Q.         Q.     Q     E   
--5------------|------13----12------|--L------------------|--17------L--------|
---------------|--15----------------|-----15--13--15------|---------------15--|
---------------|--------------------|---------------------|-------------------|
---------------|--------------------|---------------------|-------------------|
---------------|--------------------|---------------------|-------------------|
---------------|--------------------|---------------------|-------------------|


                      NH             NH       NH                             
   H.                 Q.     Q       E        H.              H.             
--17------------|-----------------------|------------------|---------------||
----------------|-----------------------|------------------|--3------------||
----------------|--<>12------L----------|--<>12------------|--2------------||
----------------|-----------------<>12--|------------------|--3------------||
----------------|-----------------------|------------------|---------------||
----------------|-----------------------|------------------|--0------------||



Guitar 2


     Q.     Q.        Q.     Q.        Q.     Q.        Q.     Q.      
E||----------------|----------------|----------------|----------------|
B||----------------|----------------|----------------|----------------|
G||----------------|----------------|----------------|----------------|
D||----------------|----------------|----------------|----------------|
A||----------------|----------------|----------------|----------------|
D||----------------|----------------|----------------|----------------|


  S S S S S S S S S S S S    S S S S S S S S S S S S    E  E  E  E  E  E   
--------------------------|--------------------------|--------------------|
--------------------------|--------------------------|--------------------|
----2---2---2---2---2---2-|----2---2---2---2---2---2-|--2--2--2--2--2--2--|
------5---5-------5---5---|------5---5-------5---5---|--5--5--5--5--5--5--|
--0-----------0-----------|--0-----------0-----------|--0--0--0--0--0--0--|
--------------------------|--------------------------|--------------------|


                             >     >        >     >     >      
  E  E  E  E  E  E     E  E  E  E  E  E     E  E  E  E  E  E   
--------------------|--------------------|--------------------|
--------------------|--------------------|--------------------|
--2--2--2--2--2--2--|--------------------|--------------------|
--5--5--5--5--5--5--|-----0--0--0--0--0--|--0--0--0--0--0--0--|
--0--0--0--0--0--0--|-----3-----3-----3--|-----3-----3-----3--|
--------------------|-----7-----7-----7--|-----7-----7-----7--|


  E  E  E  E  E  E     E  E  E  E  E  E     E  E  E  E  E  E   
--------------------|--------------------|--------------------|
--------1--------0--|--------------------|--------1--------0--|
--------------------|-----------------2--|--------------------|
-----2--------0-----|--------3-----3-----|-----2--------0-----|
--0-----------------|-----0--------------|--0-----------------|
-----------5--------|--0--------3--------|-----------5--------|


  E  E  E  E  E  E     E  E  E  E  E  E     E  E  E  E  E  E   
--------------------|--------------------|--------------------|
--------------------|--------1--------0--|--------------------|
-----------------2--|--------------------|-----------------2--|
--------3-----3-----|-----2--------0-----|--------3-----3-----|
-----0--------------|--0-----------------|-----0--------------|
--0--------3--------|-----------5--------|--0--------3--------|


  E  E  E  E  E  E     E  E  E  E  E  E     Q.     Q.        Q.     Q.      
--------------------|--------------------|----------------|----------------|
--------------------|--------------------|---------3------|--L------1------|
--------------------|--------------------|---------0------|--L------2------|
-----------0--------|-----------0--------|--2-------------|----------------|
--------0-----0-----|--------0-----0-----|--0-------------|----------------|
--0--3-----------3--|--0--3-----------3--|----------------|----------------|


  Q.     Q.        Q.     Q.        Q.     Q.        Q.     Q.      
---------1------|--L-------------|----------------|---------0------|
---------3------|--L------1------|---------3------|--L------1------|
---------2------|--L------2------|---------2------|--L------0------|
--2-------------|----------------|--2------0------|--L-------------|
--0-------------|----------------|--0-------------|---------3------|
---------0------|--L-------------|----------------|----------------|


  H.              Q.     Q.        Q.     Q.        Q.     Q.      
--1------------|--1-------------|----------------|----------------|
--1------------|--3-------------|----------------|----------------|
--2------------|--2-------------|----------------|----------------|
---------------|----------------|---------0------|----------------|
---------------|---------3------|----------------|--0------3------|
--3------------|--0-------------|--5-------------|----------------|


  Q.     Q.        S S E  E  S S E  E     S S E  E  S S E  E   
----------------|----0-0--0------------|--------------1-1--1--|
----------------|--------------8-8--8--|----3-3--3--3---------|
----------------|--2---------5---------|--0-------------------|
--0-------------|----------------------|----------------------|
---------0------|--0-------------------|----------------------|
----------------|------------5---------|--0---------3---------|


  S S E  E  S S E  E     S S E  E  S S E  E     S S E  E  S S E  E   
----0-0--0------------|--------------5-5--5--|----0-0--0------------|
--------------8-8--8--|----3-3--3--3---------|--------------8-8--8--|
--2---------5---------|--0-------------------|--2---------5---------|
----------------------|----------------------|----------------------|
--0-------------------|----------------------|--0-------------------|
------------5---------|--0---------0---------|------------5---------|


  S S E  E  S S E  E     S S E  S S E  S S E     S S E  S S E  S S E   
--------------1-1--1--|-----------3-3--3-5-5--|--5-7-7--3-5-5--5-7-7--|
----3-3--3--3---------|----5-5--5-------------|-----------------------|
--0-------------------|--2--------------------|-----------------------|
----------------------|-----------------------|-----------------------|
----------------------|-----------------------|-----------------------|
--0---------3---------|-----------------------|-----------------------|


  S S E  E  E  E  E     E  E  E  E  E  E     E  E  E  E  E  E   
--3-5-5--5--5--5--5--|--5--5--5--5--5--5--|--------------------|
---------------------|--------------------|--------1--------0--|
---------------------|--------------------|--------------------|
---------------------|--------------------|-----2--------0-----|
---------------------|--------------------|--0-----------------|
---------------------|--------------------|-----------5--------|


  E  E  E  E  E  E     E  E  E  E  E  E     E  E  E  E  E  E   
--------------------|--------------------|--------------------|
--------------------|--------1--------0--|--------------------|
-----------------2--|--------------------|-----------------2--|
--------3-----3-----|-----2--------0-----|--------3-----3-----|
-----0--------------|--0-----------------|-----0--------------|
--0--------3--------|-----------5--------|--0--------3--------|


  Q.     E  E  E     E  E  E  Q    E     H.                H        E  E   
--5------7-----7--|--L--5--7--8----3--|--5------------|--7g5--------0-----|
------------8-----|-------------------|---------------|----------------3--|
------------------|-------------------|---------------|-------------------|
------------------|-------------------|---------------|-------------------|
------------------|-------------------|---------------|-------------------|
------------------|-------------------|---------------|-------------------|


  Q.     E  E  E     E  E  E  E  E  E     E  E  E  E  E  E   
------------------|--------------------|--------------------|
--3---------------|--------------------|--------------------|
--2---------------|--------------------|-----------5--------|
--0------------0--|--------2--------3--|--------7-----7-----|
------------0-----|-----0--------0-----|-----7-----------7--|
--0------0--------|--2--------3--------|--7-----------------|


  E  E  E  E  E  E     Q.     E  E  E     E  E  E  E  E  E   
--------------------|------------------|--------------------|
--------------------|--3---------------|--------------------|
-----------5--------|--2---------------|--------------------|
--------7-----7-----|--0------------0--|--------2--------3--|
-----7-----------7--|------------0-----|-----0--------0-----|
--7-----------------|--0------0--------|--2--------3--------|


  E  E  E  E  E  E     E  E  E  E  E  E     H.              H.            
--------------------|--------------------|---------------|---------------|
--------------------|--------------------|--3------------|--L------------|
-----------5--------|-----------5--------|--4------------|--L------------|
--------7-----7-----|--------7-----7-----|--5------------|--L------------|
-----7-----------7--|-----7-----------7--|---------------|---------------|
--7-----------------|--7-----------------|--5------------|--L------------|


  H.             
---------------||
---------------||
---------------||
---------------||
---------------||
---------------||




Duration Legend
---------------
W - whole
H - half
Q - quarter
E - 8th
S - 16th
T - 32nd
X - 64th
. - note dotted
|-n-|  - n-tuplets