Login or Register to remove this ad. | Advertise Here

Main Theme (Goldeneye 007) Guitar Tab

Submitted: Nov 22, 2010 by Frogma

0
Download | Listen
Game: Goldeneye 007
Composer(s): Grant Kirkhope, Robin Beanland, Graeme Norgate
Style: 2 or more instruments, Arrangement

AutoScroll: Slow | Medium | Fast
Hey, thought I would put this down on paper since it is the soundtrack of my life.

If you have a spare guitarist in your closet you could get him out to play:

-0-0-0-0-0-0-0-0-
-0-0-1-1-2-2-1-1-
-0-0-0-0-0-0-0-0-
-2-2-2-2-2-2-2-2-
-2-2-2-2-2-2-2-2-
-0-0-0-0-0-0-0-0-

slowly while you play:

-----------------------------------------------------------------------------
-----------------------------------------------------------------------------
-----------------------------------------------------------------------------
-----------------------------------------------------------------1-0---------
-----------------------------------------------------------------------2-0-2-
-0-2-2-2---0-0-0-0-3-3-3---2-2-2-0-2-2-2---0-0-0-0-3-3-3---2-1-0-------------

-------------------------------------------------------------------------------
-------4-3-------0-----------------------------4-3-----0-----------------------
---0---------0-3-----0-2-0-----------------0-------0-3-----0-2-0---------------
-2-------------------------3---0-2-------2-----------------------3-----0-2---2-
-------------------------------------4-------------------------------2---------
-------------------------------------------------------------------------------

-------------------------------------------------------
-------------------------------------------------------
-------------------------------------------------------
-------------------------------------------------------
-------------------------------------------------------
-0-0-2---0-2---3-3-2---0-2---0-0-2---0-2---3-3-2---0-2-

-------------------------------------------------------------------------------
-------4-3-------0-----------------------------4-3-----0-----------------------
---0---------0-3-----0-2-0-----------------0-------0-3-----0-2-0---------------
-2-------------------------3---0-2-------2-----------------------3-----0-2---2-
-------------------------------------4-------------------------------2---------
-------------------------------------------------------------------------------


-------------------------------------------------------2-1-------4-3---0-3-11-10------
-4---3----------4---3----------4---3---------4-3-----0-------0-3-------------------7--
---------0--------------0--------------0---0-------0-------------------------------8--
-----------------------------------------2-----------------------------------------9--
-----------------------------------------------------------------------------------10-
-----------------------------------------------------------------------------------0--

1 comment on Main Theme

Whoa!! Awesome!

Whoa!! Awesome!