Login or Register to remove this ad. | Advertise Here

The Vengeful Spartan (God of War) Guitar Tab

Submitted: Sep 09, 2009 by serpent (Last updated: Feb 06, 2010)

1
Average: 1 (1 vote)
Download | Listen
Game: God of War
Composer(s): Gerard K. Marino, Ron Fish, Winifred Phillips, Mike Reagan, Cris Velasco, Winnie Waldron
Style: Fingerstyle, Transcription

AutoScroll: Slow | Medium | Fast
Rhythm:
------
------
------
------
00--00
00--00

Main Part:
----------------------------------------------------------------------------
----------------------------------------------------------------------------
7-12-11-8-----5-7-8-7--7-8-11-12-----14-12-11------7-15-14-12-------14-12-11
----------------------------------------------------------------------------
5-10-9--6-----3-5-6-5--5-6-9--10-----12-10-9-------6-13-12-10-------12-10-9-
----------------------------------------------------------------------------

-------------------------------------------------
-------------------------------------------------
7-9-10-9-7------6-7-8-7--7-5-8---5-7-8-7-7--7-5-8
-------------------------------------------------
5-7-8--7-5------4-5-6-5--5-3-6---3-5-6-5-5--5-3-6
-------------------------------------------------