Login or Register to remove this ad. | Advertise Here

With Sympathy (Gears of War 2) Guitar Tab

Submitted: Oct 25, 2010 by A Dead Fly

0
Download | Listen
Game: Gears of War 2
Composer(s): Steve Jablonsky, Clay Duncan
Style: 2 or more instruments, Transcription

AutoScroll: Slow | Medium | Fast
Artist: Steve Jablonsky
Album: Gears of War 2
Song: With Sympathy
Tabbed By: A Dead Fly

Tuning: Standard and Drop D

I transcribed this song for two guitars, the lead guitar follows first
the strings, and then switches to the vocals whenever they come in, and 
the rythym guitar is for the chord picking during the buildup

e|-17<<<<---------|
B|----------------|
G|----------------| Strings fade in with this note
D|----------------|
A|----------------|
E|----------------|

Second set of strings comes in with this

e|-15-------------|-13-------------|-12-------------|-(12)-----------|
B|----------------|----------------|----------------|----------------|
G|----------------|----------------|----------------|----------------|
D|----------------|----------------|----------------|----------------|
A|----------------|----------------|----------------|----------------|
E|----------------|----------------|----------------|----------------|

Then Vocals Come in

e|----------------|----------------|----------------|----------------|
B|----------------|----------------|----------------|----------------|
G|-10-------------|-12-------------|-14-------------|-(14)-----------|
D|----------------|----------------|----------------|----------------|
A|----------------|----------------|----------------|----------------|
E|----------------|----------------|----------------|----------------|

e|----------------|----------------|----------------|----------------|
B|----------------|----------------|----------------|----------------|
G|-15-------------|-(15)-----------|-17-------------|-(17)-----------|
D|----------------|----------------|----------------|----------------|
A|----------------|----------------|----------------|----------------|
E|----------------|----------------|----------------|----------------|


e|----------------|----------------|----------------|----------------|
B|---------15-----|-17-----18------|-------17-------|-(17)-----------|
G|-17-------------|----------------|----------------|----------------|
D|----------------|----------------|----------------|----------------|
A|----------------|----------------|----------------|----------------|
E|----------------|----------------|----------------|----------------|

Then the loud synthesizer and the brass enters in

e|----------------|----------------|----------------|----------------|
B|----------------|----------------|----------------|----------------|
G|----------------|----------------|----------------|----------------|
D|-8--------------|-(8)------------|-8--------------|-7--------------|
A|-x--------------|-(x)------------|-x--------------|-x--------------|
E|-6--------------|-(6)------------|-6--------------|-5--------------|

e|----------------|----------------|----------------|----------------|
B|-11-------------|-(11)-----------|-11-------------|-10-------------|
G|-x--------------|-(x)------------|-x--------------|-x--------------|
D|-8--------------|-(8)------------|-8--------------|-7--------------|
A|-x--------------|-(x)------------|-x--------------|-x--------------|
E|-6--------------|-(6)------------|-6--------------|-5--------------|

Then the buildup

Dropped D Guitar
(Strings Rythym)

e|----------------|----------------|----------------|----------------|
B|----------------|----------------|----------------|----------------|
G|----------------|----------------|----------------|----------------|
D|----------3-----|-3--------3-----|-3--------3-----|-3--------------|
A|------5-------5-|------5-------5-|------5-------5-|------5-------3-|
D|-0--------------|----------------|----------------|----------3-----|

e|----------------|----------------|----------------|----------------|
B|----------------|----------------|----------------|----------------|
G|----------------|----------------|----------------|---------0------|
D|-3--------3-----|-3--------3-----|-3--------3-----|-----2--------2-|
A|------3-------3-|------3-------3-|------3-------3-|-3--------------|
D|----------------|----------------|----------------|----------------|

e|----------------|----------------|----------------|----------------|
B|----------------|----------------|----------------|----------------|
G|-0-------0------|-0-------0------|-0--------------|----------------|
D|-----2-------2--|-----2-------2--|------2-------5-|------5-------5-|
A|----------------|----------------|----------------|-5--------5-----|
D|----------------|----------------|----------5-----|----------------|

e|----------------|----------------|----------------|----------------|
B|----------------|----------------|----------------|----------------|
G|----------------|----------------|----------------|----------------|
D|------5-------5-|------5-------5-|------3-------3-|-----3--------3-|
A|-5--------5-----|-5--------5-----|-1--------5-----|-5-------5------|
D|----------------|----------------|----------------|----------------|

e|----------------|--------|
B|----------------|--------|
G|----------------|--------|
D|------3-------3-|------3-|    Play all this once Then...
A|-5--------5-----|-5------|
E|----------------|--------|

e|----------------|----------------|----------------|----------------|
B|----------------|----------------|----------------|----------------|
G|----------------|----------------|----------------|----------------|
D|------3-------3-|------3-------3-|------3-------3-|------3-------3-|
A|----------5-----|-5--------5-----|-5--------5-----|-5--------------|
D|-0--------------|----------------|----------------|----------3-----|

e|----------------|----------------|----------------|----------------|
B|----------------|----------------|----------------|----------------|
G|----------------|----------------|----------------|-----0--------0-|
D|------3-------3-|------3-------3-|------3-------3-|---------2------|
A|-3--------3-----|-3--------3-----|-3--------3-----|-3--------------|
D|----------------|----------------|----------------|----------------|

e|----------------|----------------|----------------|----------------|
B|----------------|----------------|----------------|----------------|
G|-----0-------0--|-----0-------0--|------0---------|----------------|
D|-2-------2------|-2-------2------|-2------------5-|------5-------5-|
A|----------------|----------------|----------------|-5--------5-----|
D|----------------|----------------|----------5-----|----------------|

e|----------------|----------------|----------------|----------------|
B|----------------|----------------|----------------|----------------|
G|----------------|----------------|----------------|----------------|
D|------5-------5-|------5-------5-|------3-------3-|-----3--------3-|
A|-5--------5-----|-5--------5-----|-1--------5-----|-5-------5------|
D|----------------|----------------|----------------|----------------|

e|----------------|--------|
B|----------------|--------|
G|----------------|--------|
D|------3-------3-|------3-|    Play all this twice to the end of the song
A|-5--------5-----|-5------|    (You're just reversing the picking
E|----------------|--------|     of the first 3 chords from how you played
                                 it the first time)


Or you can play it an octave up if you dont feel like drop tuning your
guitar or like the sound better

Standard Tuning Guitar
(Strings Rythym Higher Octave Version)

e|----------------|----------------|----------------|----------------|
B|----------6-----|-6--------6-----|-6--------6-----|-6--------------|
G|------7-------7-|------7-------7-|------7-------7-|------7-------5-|
D|-0--------------|----------------|----------------|----------3-----|
A|----------------|----------------|----------------|----------------|
E|----------------|----------------|----------------|----------------|

e|----------------|----------------|----------------|---------3------|
B|-6--------6-----|-6--------6-----|-6--------6-----|-----5--------5-|
G|------5-------5-|------5-------5-|------5-------5-|-5--------------|
D|----------------|----------------|----------------|----------------|
A|----------------|----------------|----------------|----------------|
E|----------------|----------------|----------------|----------------|

e|-3-------3------|-3-------3------|-3--------------|----------------|
B|-----5-------5--|-----5-------5--|------5-------8-|------8-------8-|
G|----------------|----------------|----------------|-7--------7-----|
D|----------------|----------------|----------5-----|----------------|
A|----------------|----------------|----------------|----------------|
E|----------------|----------------|----------------|----------------|

e|----------------|----------------|----------------|----------------|
B|------8-------8-|------8-------8-|------6-------6-|-----6--------6-|
G|-7--------7-----|-7--------7-----|----------7-----|-7-------7------|
D|----------------|----------------|-8--------------|----------------|
A|----------------|----------------|----------------|----------------|
E|----------------|----------------|----------------|----------------|

e|----------------|--------|
B|------6-------6-|------6-|
G|-7--------7-----|-7------|
D|----------------|--------|    Play all this once Then...
A|----------------|--------|
E|----------------|--------|

e|----------------|----------------|----------------|----------------|
B|------6-------6-|------6-------6-|------6-------6-|------6-------6-|
G|----------7-----|-7--------7-----|-7--------7-----|-7--------------|
D|-0--------------|----------------|----------------|----------3-----|
A|----------------|----------------|----------------|----------------|
E|----------------|----------------|----------------|----------------|

e|----------------|----------------|----------------|-----3--------3-|
B|------6-------6-|------6-------6-|------6-------6-|---------5------|
G|-5--------5-----|-5--------5-----|-5--------5-----|-5--------------|
D|----------------|----------------|----------------|----------------|
A|----------------|----------------|----------------|----------------|
E|----------------|----------------|----------------|----------------|

e|-----3-------3--|-----3-------3--|------3---------|----------------|
B|-5-------5------|-5-------5------|-5------------8-|------8-------8-|
G|----------------|----------------|----------------|-7--------7-----|
D|----------------|----------------|----------5-----|----------------|
A|----------------|----------------|----------------|----------------|
E|----------------|----------------|----------------|----------------|

e|----------------|----------------|----------------|----------------|
B|------8-------8-|------8-------8-|------6-------6-|-----6--------6-|
G|-7--------7-----|-7--------7-----|----------7-----|-7-------7------|
D|----------------|----------------|-8--------------|----------------|
A|----------------|----------------|----------------|----------------|
E|----------------|----------------|----------------|----------------|

e|----------------|--------|
B|------6-------6-|------6-|
G|-7--------7-----|-7------|
D|----------------|--------|  Play twice (same as low octave version)...
A|----------------|--------|
E|----------------|--------|

Strings/ Vocals Lead

For this part I have it written so that you follow the strings for
the first part of the buildup, then switch to follow the voice when
it enters

Add Vibrato Everywhere 

e|----------------|----------------|----------------|----------------|
B|----------------|----------------|----------------|----------------|
G|-7--------------|-(7)------------|-(7)------------|----------5-----|
D|----------------|----------------|----------------|----------------|
A|----------------|----------------|----------------|----------------|
E|----------------|----------------|----------------|----------------|

e|----------------|----------------|----------------|----------------|
B|----------------|----------------|----------------|-8--------------|
G|-(5)------------|-(5)------------|-(5)------------|-9--------------|
D|----------------|----------------|----------------|----------------|
A|----------------|----------------|----------------|----------------|
E|----------------|----------------|----------------|----------------|

e|----------------|----------------|----------------|----------------|
B|-(8)------------|-(8)------------|----------------|----------------|
G|-(9)------------|-(9)------------|--------7-------|-(7)------------|
D|----------------|----------------|--------8-------|-(8)------------|
A|----------------|----------------|----------------|----------------|
E|----------------|----------------|----------------|----------------|

e|----------------|----------------|-6--------------|-(6)------------|
B|----------------|----------------|-6--------------|-(6)------------|
G|-(7)------------|-(7)------------|----------------|----------------|
D|-(8)------------|-(8)------------|----------------|----------------|
A|----------------|----------------|----------------|----------------|
E|----------------|----------------|----------------|----------------|

e|-(6)------------|-(6)----|
B|-(6)------------|-(6)----|
G|----------------|--------|
D|----------------|--------|
A|----------------|--------|
E|----------------|--------|

The vocals Enter Here
Continue Adding Vibrato Everywhere

e|----------------|----------------|----------------|----------------|
B|----------------|----------------|----------------|----------------|
G|----------------|-7--------------|-(7)----------9-|-(9)----10------|
D|----------------|----------------|----------------|----------------|
A|----------------|----------------|----------------|----------------|
E|----------------|----------------|----------------|----------------|

e|----------------|----------------|----------------|----------------|
B|----------------|----------------|----------------|----------------|
G|-(10)-----------|-(10)-----------|----------------|-12-------------|
D|----------------|----------------|-10-------------|----------------|
A|----------------|----------------|----------------|----------------|
E|----------------|----------------|----------------|----------------|

e|----------------|----------------|----------------|----------------|
B|----------------|----------------|--------11------|-(11)-----------|
G|-(12)-----------|-(12)---------9-|-(9)------------|----------------|
D|----------------|----------------|----------------|----------------|
A|----------------|----------------|----------------|----------------|
E|----------------|----------------|----------------|----------------|

e|----------------|----------------|-10-------------|-(10)-----------|
B|-(11)-----------|----------------|----------------|----------------|
G|----------------|-------12-------|----------------|----------------|
D|----------------|----------------|----------------|----------------|
A|----------------|----------------|----------------|----------------|
E|----------------|----------------|----------------|----------------|

e|-(10)-----------|--------13------|-(13)-----------|-(13)-----------|
B|----------------|-11-------------|----------------|----------------|
G|----------------|----------------|----------------|----------------|
D|----------------|----------------|----------------|----------------|
A|----------------|----------------|----------------|----------------|
E|----------------|----------------|----------------|----------------|

e|----------------|-13-------------|-(13)-----------|-(13)-----------|
B|-------15-------|----------------|----------------|----------------|
G|----------------|----------------|----------------|----------------|
D|----------------|----------------|----------------|----------------|
A|----------------|----------------|----------------|----------------|
E|----------------|----------------|----------------|----------------|

e|--------15------|-(15)-----------|-(15)-----------|----------------|
B|-13-------------|----------------|----------------|-------17-------|
G|----------------|----------------|----------------|----------------|
D|----------------|----------------|----------------|----------------|
A|----------------|----------------|----------------|----------------|
E|----------------|----------------|----------------|----------------|

e|-15-------------|-(15)-----------|-(15)-----------|-------13-------|
B|----------------|----------------|----------------|-15-------------|
G|----------------|----------------|----------------|----------------|
D|----------------|----------------|----------------|----------------|
A|----------------|----------------|----------------|----------------|
E|----------------|----------------|----------------|----------------|

e|-(13)-----------|-(13)-----------|------13--------|-13QB-----------|
B|----------------|----------------|----------------|----------------|
G|----------------|----------------|----------------|----------------|
D|----------------|----------------|----------------|----------------|
A|----------------|----------------|----------------|----------------|
E|----------------|----------------|----------------|----------------|

Hold that last note until the song ends

Email questions and stuff to azlizard13@yahoo.com
Please give me credit if you use this for a video