Login or Register to remove this ad. | Advertise Here

Outset Island (Legend of Zelda: The Wind Waker) Guitar Tab

Submitted: Sep 30, 2007 by archard

5
Average: 5 (6 votes)
Download | Listen
Game: Legend of Zelda: The Wind Waker
Composer(s): Koji Kondo, Hajime Wakai, Toru Minegishi, Kenta Nagata
Style: Transcription
Series: Legend of Zelda

AutoScroll: Slow | Medium | Fast
Outset Island
The Legend of Zelda: The Wind Waker
Composed by Koji Kondo
Tabbed by Richard Schaefer (richard@gametabs.net)
7/21/06

The first 4 notes get a staccato touch

e----1-----------------------1-2
B--2---2-----------1-2-4-2-4----
G--------1-------3--------------
D----------3--------------------
A-------------------------------
E-------------------------------

e--4-1-----1---4-1-----1---4-8---6-4---2-1------
B--------4-----------4-----------------------2-4
G-----------------------------------------------
D-----------------------------------------------
A-----------------------------------------------
E-----------------------------------------------

e--4-1-----1---4-1-----1---4-8---6-9---9-4---6-4
B--------4-----------4--------------------------
G-----------------------------------------------
D-----------------------------------------------
A-----------------------------------------------
E-----------------------------------------------

e---------------------
B--2-------4-2--------
G------3---------1h3-1
D---------------------
A---------------------
E---------------------

This next part is supposed to be quietly played while holding down
that last G# up there. Obviously you can't do that with one guitar,
so it might be kinda fun to play with a friend or something.

e----------1------
B--------2---1----
G--1---1-------1--
D----0-----------3
A-----------------
E-----------------

e--1-------2-1--------------------------1----
B------4---------2---2h4-4--------2-1-2---4--
G-------------------------------------------1
D--------------------------------------------
A--------------------------------------------
E--------------------------------------------

e-----------------------------------------
B--4-4---1-1---2-2---------1-1------------
G--------------------3-3---------1-1------
D--------------------------------------4-4
A-----------------------------------------
E-----------------------------------------

e--4-1------------1----------4-1------------1
B---------------4-------------------------4--
G--------------------------------------------
D--------------------------------------------
A--------------------------------------------
E--------------------------------------------

Main Theme

e---------------------------------
B----2----------------------------
G--1---1--------------------------
D--------3---------1-3-----1-3---1
A----------4-----4-----4-4--------
E---------------------------------

e---------------------------------
B---------------------------------
G--1-1-1-3------------------------
D------------------1-3-3-3-4-3---1
A----------4-----4----------------
E---------------------------------

e----9-------------1-------1----
B--9---9-6-2---2-4---2-2-4-----4
G-------------------------------
D-------------------------------
A-------------------------------
E-------------------------------

e--4-6-4-1---------1-1-1-2-1----
B----------2---2-4-------------4
G-------------------------------
D-------------------------------
A-------------------------------
E-------------------------------

e------------------1------
B----------------2---2----
G--1-1-1-1-1---1-------1--
D------------------------3
A------------4------------
E------------------------- x2

e----9-------1-2-4h6-4-2h4-2--------------------------1----
B--9---9-6-4-------------------6-4-6-2----------2---2---4--
G-------------------------------------------------1-------1
D----------------------------------------------------------
A----------------------------------------------------------
E----------------------------------------------------------

e-----------------------------------------------------
B--4-4---1-1---2-2---------1-1------------------------
G--------------------3-3---------1-1---3-3---------1--
D--------------------------------------------4-4-----3
A-----------------------------------------------------
E-----------------------------------------------------

3 comments on Outset Island

Great tab, I love this song!

Great tab, I love this song!

Awesome!

Sounds just like it

Awesome

Plain awesome