Login or Register to remove this ad. | Advertise Here

Makar's Violin (Legend of Zelda: The Wind Waker) Guitar Tab

Submitted: Sep 30, 2007 by archard (Last updated: Oct 05, 2007)

5
Average: 5 (4 votes)
Download | Listen
Game: Legend of Zelda: The Wind Waker
Composer(s): Koji Kondo, Hajime Wakai, Toru Minegishi, Kenta Nagata
Style: Transcription
Series: Legend of Zelda

AutoScroll: Slow | Medium | Fast
Makar's Violin
The Legend of Zelda: The Wind Waker
Composed by Koji Kondo
Tabbed by Richard Schaefer (richard@gametabs.net)
8/8/06

e----------0-------0---------------------0----------------
B----1-------1-1-3---3-------1-3-1---------1-1-------1----
G--0---0-0-------------2-0-2-------2-0-2-------2-0-2---0-0
D---------------------------------------------------------
A---------------------------------------------------------
E---------------------------------------------------------

e--0-------0---------------0-0-3-2------
B----1-1-3---3-------1-3-1---------3-0--
G--------------2-0-2-------------------2
D---------------------------------------
A---------------------------------------
E---------------------------------------

6 comments on Makar's Violin

I luv this song!!!!!!!! It's

I luv this song!!!!!!!! It's a good tab ;)

You're in the wrong tone

You're in the wrong tone ladder.

sounds like it and if u slow

sounds like it and if u slow down towards the end it sounds better

e--0-------0---------------0-

e--0-------0---------------0-0-3-2------
B----1-1-3---3-------1-3-1---------3-0--
G--------------2-0-2-------------------2
D--------------------------------------0
A---------------------------------------
E---------------------------------------

Ending in a power chord sounds much better

this is a rally good easy to

this is a rally good easy to follow tab, my girfriend is obsessed with zelda and whenever she see's makar she has a spasm, this is good

Awesome

A great song in the game, also a great tab to play on.