Login or Register to remove this ad. | Advertise Here

Forest Haven (Legend of Zelda: The Wind Waker) Guitar Tab

Submitted: Sep 30, 2007 by Kabukibear (Last updated: Sep 09, 2009)

4.9
Average: 4.9 (10 votes)
Download | Listen
Game: Legend of Zelda: The Wind Waker
Composer(s): Koji Kondo, Hajime Wakai, Toru Minegishi, Kenta Nagata
Style: Arrangement, Fingerstyle
Series: Legend of Zelda

AutoScroll: Slow | Medium | Fast
Forest Haven
~The Legend of Zelda: The Wind Waker~
Composed By: Koji Kondo
Arranged By: Justin Lincoln

bpm=80
                               NH
     Q.     E  Q    Q          Q    E  E  H           E  E  E  S T T Q    Q
E||--0--------------5----|---*12-------------------|--0--5--0------------------|
B||----------------------|-------------------------|-----------2-0-2-0---------|
G||--2-------------------|-------------------------|---------------------------|
D||----------------------|-------------------------|---------------------------|
A||--0------0--0---------|-----0-------0--0--------|--0--------0-----0---------|
E||-----------------0----|-------------------------|----------------------0----|

  Q    E  S S S S Q    S S    E.  T T E  E  S T T E  Q
--------------0-2-0------0-|--------------------0---------|
----------2-3----------3---|--3---2-3-2--0--2-------------|
---------------------------|------------------2---2-------|
---------------------------|------------------------------|
--0-------0---0------------|--0----------0--0-------------|
---------------------------|-------------------------0----|

  Q    E  E  H           E.  S E  S S S S E  E  E     E.  S E  E  H
----------------------|----------------------------|-----------------------|
----------------------|-------------------0--------|-----------------------|
----------------------|--0-----0------0-2----2-----|--0--------------------|
----------------------|------2------2-----------2--|------4-2--------------|
--0-------0--0--------|--0--------0---0------------|--0--------0--0--------|
----------------------|----------------------0-----|-----------------------|

                                  |-3-|
  E.  S E  S S S S E  E  E     E  S S S E  E  H
-----------------0-2--5--3--|--0------------------------||
--3---0-3----0-3------------|-----3-1-0-----------------||
----------------------------|--2--------2--------------*||
----------------------------|-----------2--------------*||
--0--------0---0------------|--0-----------0--0---------||
----------------------0-----|---------------------------||

   E  E  E  E  Q    Q       E  E   E  E  Q    Q       E  E  E  E  Q    Q
---------5-----4---------|------------9--7---------|--------5-----4---------|
------7-----7------------|-----7--10----------9----|-----7-----7------------|
*------------------------|-------------------------|------------------------|
*--0--------0--0---------|--0---------0--0---------|--0--------0--0---------|
--------------------0----|--------------------0----|-------------------0----|
-------------------------|-------------------------|------------------------|

  Q.     E  H             S S Q    S S Q    S S E     Q    E  E  E  E  E  E
--0-------------------||--0-2-0------0-------------|-------------------------|
--7-------------------||-----------3---3----2-3-2--|----------0-----------0--|
---------------------*||---------------------------|-------------2--0--2-----|
--0------0--0--------*||---------------------------|-------------------------|
----------------------||--0--------0---0-----------|--0-------0--0-----------|
----------------------||--------------------0------|-------------------------|

  Q.     E  E  S S S S S S    Q.     E  H           S S Q    S S Q    S S E
---------------0-2-3-5-3-2-|--3------------------|--7-9-7----5-7-5----3-5-3--|
---------------------------|---------------------|---------------------------|
--2------------------------|---------------------|---------------------------|
---------2-----------------|---------------------|---------------------------|
--0------0--0--------------|--0------0--0--------|--0--------0---0-----------|
-------------------0-------|---------------------|--------------------0------|

                                         |-3-|         |-3-|            Da Capo
  Q    E  E  E  E  E  E     Q.     E  E  S S S Q       S S S Q    E  Q    Q
----------2--0-----0--2--|--0------------2-3-5-3----|--0-2-3-2----0------------|
----------3--2--3--2--3--|--2-----------------------|---------------------3----|
----------------4--------|--------------------------|--------------------------|
-------------------------|--------------------------|--------------------------|
--0-------0--0-----------|--0------0--0-------------|--0----------0--0---------|
-------------------------|---------------------0----|--------------------------|

  ^
  W
--5----------------||
--2----------------||
--2----------------||
--2----------------||
--0----------------||
-------------------||

Duration Legend
---------------
W - whole
H - half
Q - quarter
E - 8th
S - 16th
T - 32nd
X - 64th
. - note dotted
|-n-|  - n-tuplets

Tablature Legend
----------------
L - tied note
NH - natural harmonic
^ - brush up
Da Capo - Jump to the beginning

7 comments on Forest Haven

What!? No comment on this

5

What!? No comment on this yet?!

Amazing! Gonna need to get the rhythm down so I can play it fast enough, but awesome nonetheless :D

this is the best! easy, and

5

this is the best! easy, and it sounds perfect!

asoame it sounds perfect

nice tab ive been working on it for awhile im so glad its hear i love forest haven

i don't actually remember the

i don't actually remember the tune so it sounds like a jumble of notes when i play, but at least it's a pretty jumble of notes.

also, the last chord looks

also, the last chord looks like a partial g chord moved up two places, which is really hard, i found it easier to do a fifth barred e chord instead, similar sound and much less stretching.

When I play x02225, there's

When I play x02225, there's no stretching involved. Index on 2, pinky on 5 shouldn't be very hard for you to reach. x02227 would be a stretch...

i must have smaller hands

i must have smaller hands then, applying any pressure in that position is very hard to do for me, and it takes a few seconds to get it right, i find 577655 to be much more agreeable at the level i'm at.