Login or Register to remove this ad. | Advertise Here

Far From Our World (Tales of Symphonia) Guitar Tab

Submitted: Nov 07, 2007 by ronito (Last updated: Sep 24, 2009)

4.5
Average: 4.5 (2 votes)
Download | No audio :(
Game: Tales of Symphonia
Composer(s): Motoi Sakuraba, Shinji Tamura
Style: Arrangement, Fingerstyle

AutoScroll: Slow | Medium | Fast
     E  E  E  E  E.  T T    E  E  E  E  E  E     E  E  E  E  E  E   
E||--0-----------2---L---|--0-----------------|-----------0--------|
B||-----0----------------|-----3--0-----------|-----2--0-----3--2--|
G||--------2-------------|-----------0-----0--|--2--------2--------|
D||-----------4----------|--------------4--2--|--------------------|
A||--2-------------------|--------------5-----|--0-----------------|
E||----------------------|--3-----------------|--------------------|


  E  E  E  E  E  E     E  E  E  E  E.  T T    E  E  E  E  E  E   
--------------------|--0-----------2---L---|--0-----------------|
-----0-----3--2--0--|-----0----------------|-----3--0-----------|
--------2-----------|--------2-------------|-----------0-----0--|
--4--------4--------|-----------4----------|--------------4--2--|
--2-----------------|--2-------------------|--------------5-----|
--------------------|----------------------|--3-----------------|


  E  E  E  E  E  E     E  E  E  E  E  E     E  E  E  E  E  E   
-----------0--------|--------------------|--------------------|
-----2--0-----3--2--|-----0-----3--2--3--|--0-----------------|
--2--------2--------|--------2-----------|-----0--2-----0-----|
--------------------|--4--------4--------|-----------4-----2--|
--0-----------------|--2-----------------|--------------------|
--------------------|--------------------|--3-----------------|


  E  E  E  E  E  E     E  E  E  E  E  E     E  E  E  E  E  E   
--------------------|--------------------|-----------------0--|
--0-----2-----0--3--|--0-----------------|--------------0-----|
-----0-----2--------|-----0--2-----0-----|--0-----0--2--------|
--------------------|-----------4-----2--|--2--4--------------|
--------------------|--------------------|-----2--------------|
--3-----------------|--3-----------------|--------0-----------|


  E  E  E  E  E.  T T    E  E  E  E  E  E     E  E  E  E  E  E   
--0-----------2---L---|--0-----------------|-----------0--------|
-----0----------------|-----3--0-----------|-----2--0-----3--2--|
--------2-------------|-----------0-----0--|--2--------2--------|
-----------4----------|--------------4--2--|--------------------|
--2-------------------|--------------5-----|--0-----------------|
----------------------|--3-----------------|--------------------|


  E  E  E  E  E  E     E  E  E  E  E  E     E  E  E  E  E  E   
--------------------|--------------------|-----------0--------|
-----0-----3--2--0--|--0--------2--------|--3--------------3--|
--------2-----------|--------0--------0--|--------0-----------|
--4--------4--------|-----4-----2--4-----|-----4-----2--4-----|
--2-----------------|--------------------|--------------------|
--------------------|--0-----------------|--0-----------------|


  E  E  E  E  E  E     E  E  E  E  E  E     E  E  E  E  E  E   
--------------------|-----------0--------|--------------------|
--0--------2--------|--3--------------2--|--0--------2--------|
--------0--------0--|--------0-----------|--------0--------0--|
-----4-----2--4-----|-----4-----2--4-----|-----4-----2--4-----|
--------------------|--------------------|--------------------|
--0-----------------|--0-----------------|--0-----------------|


  E  E  E  E  E  E     E  E  E  E  E  E     E  E  E  E  E  E   
-----------0--------|--------------------|-----------0-----2--|
--3--------------3--|--0--------2--------|--3-----------------|
--------0-----------|--------0--------0--|--------0-----------|
-----4-----2--4-----|-----4-----2--4-----|-----4-----2--4-----|
--------------------|--------------------|--------------------|
--0-----------------|--0-----------------|--0-----------------|


  E  E  E  E  E.  T T    E  E  E  E  E  E     E  E  E  E  E  E   
--0-----------2---L---|--0-----------------|-----------0--------|
-----0----------------|-----3--0-----------|-----2--0-----3--2--|
--------2-------------|-----------0-----0--|--2--------2--------|
--2--------4----------|--------------4--2--|--------------------|
--2-------------------|--------------5-----|--0-----------------|
----------------------|--3-----------------|--------------------|


  E  E  E  E  E  E     E  E  E  E  E.  T T    E  E  E  E  E  E   
--------------------|--0-----------2---L---|--0-----------------|
-----0-----3--2--0--|-----0----------------|-----3--0-----------|
--------2-----------|--------2-------------|-----------0-----0--|
--4--------4--------|-----------4----------|--------------4--2--|
--2-----------------|--2-------------------|--------------5-----|
--------------------|----------------------|--3-----------------|


  E  E  E  E  E  E     E  E  E  E  E  E     E  E  E  E  E  E   
-----------0--------|--------------------|--------------------|
-----2--0-----3--2--|-----0-----3--2--3--|--0-----------------|
--2--------2--------|--------2-----------|-----0--2-----0-----|
--------------------|--4--------4--------|-----------4-----2--|
--0-----------------|--2-----------------|--------------------|
--------------------|--------------------|--3-----------------|


  E  E  E  E  E  E     E  E  E  E  E  E     E  E  E  E  E  E   
--------------------|--------------------|-----------------0--|
--0-----2-----0--3--|--0-----------------|--------------0-----|
-----0-----2--------|-----0--2-----0-----|--0-----0--2--------|
--------------------|-----------4-----2--|--2--4--------------|
--------------------|--------------------|-----2--------------|
--3-----------------|--3-----------------|--------0-----------|


  E  E  E  E  E.  T T    E  E  E  E  E  E     E  E  E  E  E  E   
--0-----------2---L---|--0-----------------|-----------0--------|
-----0----------------|-----3--0-----------|-----2--0-----3--2--|
--------2-------------|-----------0-----0--|--2--------2--------|
-----------4----------|--------------4--2--|--------------------|
--2-------------------|--------------5-----|--0-----------------|
----------------------|--3-----------------|--------------------|


  E  E  E  E  E  E     E  E  E  E  E.  T T    E  E  E  E  E  E   
--------------------|--0-----------2---L---|--0-----------------|
-----0-----3--2--0--|-----0----------------|-----3--0-----------|
--------2-----------|--------2-------------|-----------0-----0--|
--4--------4--------|-----------4----------|--------------4--2--|
--2-----------------|--2-------------------|--------------5-----|
--------------------|----------------------|--3-----------------|


  E  E  E  E  E  E     E  E  E  E  E  E     E  E  E  E  E  E   
-----------0--------|--------------------|--------------------|
-----2--0-----3--2--|-----0-----3--2--3--|--0-----------------|
--2--------2--------|--------2-----------|-----0--2-----0-----|
--------------------|--4--------4--------|-----------4-----2--|
--0-----------------|--2-----------------|--------------------|
--------------------|--------------------|--3-----------------|


  E  E  E  E  E  E     E  E  E  E  E  E     E  E  E  E  E  E     H.             
--------------------|--------------------|-----------------0--|---------------||
--0-----2-----0--3--|--0-----------------|--------------0-----|---------------||
-----0-----2--------|-----0--2-----0-----|--0-----0--2--------|--0------------||
--------------------|-----------4-----2--|--2--4--------------|--2------------||
--------------------|--------------------|-----2--------------|---------------||
--3-----------------|--3-----------------|--------0-----------|--0------------||




Duration Legend
---------------
W - whole
H - half
Q - quarter
E - 8th
S - 16th
T - 32nd
X - 64th
. - note dotted
|-n-|  - n-tuplets

6 comments on Far From Our World

What part of the game is

What part of the game is this song from?

Never played the game. I

Never played the game. I just listened to the OST and really liked this piece. Sorry.

I think it might be the

I think it might be the Ozette music. Idk, haven't played in a while. Gonna go do that now.

It's actually the music that

It's actually the music that plays in some dungeons like the Ice temple and the Eternal Forest. ;D

.....wait not the Eternal

.....wait not the Eternal Forest, it was the Tethealla Bridge

yes, its is known by the

yes, its is known by the grand tethealla bridge, but not the ice temple.