Login or Register to remove this ad. | Advertise Here

The True Mirror (Baten Kaitos) Guitar Tab

Submitted: Dec 19, 2006 by archard (Last updated: Jun 20, 2008)

3.666665
Average: 3.7 (12 votes)
Download | Listen
Game: Baten Kaitos
Composer(s): Motoi Sakuraba
Style: Transcription

This song is also called Battle Theme

AutoScroll: Slow | Medium | Fast
The True Mirror
Baten Kaitos
Composed by Motoi Sakuraba
Tabbed by Richard Schaefer (richard@gametabs.net)
12/19/06

This is the tab for the main part of this theme which begins
at about 8 seconds and ends at about 1:03.

e----------------------------------------------------------------5-7-
B------------8-6-----------------------------------------------5-----
G------------------8-7-5-7-----------5---------------4-5---4-5-------
D--8---5-7-8-----------------5-5-7-8-----5---6---6-7-----7-----------
A--------------------------------------------------------------------
E--------------------------------------------------------------------

e--7-5---------------------------
B------8-7-8---7-8-7-------------
G--------------------9---9-7-----
D----------------------------10-9
A--------------------------------
E--------------------------------

e--------------8---6-----------------------8---6---------10---
B------7-8-------------8-----8---6---8-------------8---------8
G--8-9--------------------------------------------------------
D-------------------------------------------------------------
A-------------------------------------------------------------
E-------------------------------------------------------------

Then repeat the first line and go into...

e--------------------------------------10-----8-----10---11---13---
B------7-8-----8-----6-----8-----8---------------------------------
G--8-9-------------------------------------------------------------
D------------------------------------------------------------------
A------------------------------------------------------------------
E------------------------------------------------------------------

e--15-----8-----10---11--13-15
B-----------------------------
G-----------------------------
D-----------------------------
A-----------------------------
E-----------------------------

5 comments on The True Mirror

Amazing i like this game so

Amazing i like this game so it will be fun to learn this song

here is the tab for the 1st

here is the tab for the 1st line of the melody in the correct octave (using the above rythmn), plus a few notes that are missing from the above version.


e---------10-15-13--11-10-8-10---------8-------------------------5-7-
B-11----11--------------------8-8-10-11---8--9-----------------5-----
G-----12--------------------------------------9------4-5---4-5-------
D----------------------------------------------9-6-7-----7-----------
A--------------------------------------------------------------------
E--------------------------------------------------------------------

http://chromaticscale.c.la/ -

http://chromaticscale.c.la/
-> Téléchargement (=download)
and you can download the GP5 or GP4 tab !

Hell yeah! I've been wanting

Hell yeah! I've been wanting to play this for sooo long and now I can! Thanks also to NeoAvenger for the first bit!

one of the greatest battle

5

one of the greatest battle themes