Login or Register to remove this ad. | Advertise Here

Viridian City (Pokémon Red & Blue & Yellow) Guitar Tab

Submitted: May 06, 2008 by PlasticDragon (Last updated: Oct 16, 2009)

4.4
Average: 4.4 (5 votes)
Download | Listen
Game: Pokémon Red & Blue & Yellow
Composer(s): Junichi Masuda
Style: Arrangement, Fingerstyle
Series: Pokemon

AutoScroll: Slow | Medium | Fast
Game: Pokemon Red & Blue Versions
Title: Viridian City
Composer: Junichi Masuda
Year: 1995

Arranged by: Dan Hill

4/4
  
Gtr I
  q  q  E E E E   E E E E E E  E E
|-7--5--4-------|---4-5-7---7------|
|-9--7--5---7-4-|-5-----9---9-10-9-|
|---------4-----|-4-------9--------|
|-9--7--6-------|-6-----9---9------|
|---------------|------------------|
|---------------|------------------|


  E E E E Q  Q    Q.   E Q  Q
|-5-2-----0--0--|--------------|
|-4-----2-------|-4----2-5--7--|
|-2-------2--2--|-4------6--8--|
|-4---4---4--4--|-4------7--9--|
|---------------|--------------|
|---------------|--------------|


  q  q  E E E E   E E E E E E E E
|-5--4--2-----0-|---2-4-5---5-4-2-|
|-7--5--4---2---|-4-----4---4---4-|
|-----------4---|-4-----4-4-4---4-|
|-7--6--4-4-----|-4---------------|
|---------------|-----------------|
|---------------|-----------------|


  E E E Q  E E E   Q.   Q.   Q
|-4-0---0--------|--------------|
|-5------------5-|-5----7----9--|
|-4---4-4--4---4-|-4----8----7--|
|------------6---|-6----7----9--|
|----------------|--------------|
|----------------|--------------|


   E E  E  Q  E  E E    E E  E  E  E  E  E E
|--9-------9---------|-12------12-14-12-11-9-|
|-10---10-10----10---|-10---10----10---------|
|----9--------9----9-|----9-------11---------|
|-11------11---------|-11--------------------|
|--------------------|-----------------------|
|--------------------|-----------------------|


  E E E Q  E E E   E E E E Q  Q
|-7-----7--------|-7-------7--6--|
|-9---9-9----9---|-9---9---9--8--|
|---9------9---9-|---9---9-------|
|-9-----9--------|-9-------9--8--|
|----------------|---------------|
|----------------|---------------|


  E E E Q  E E E   E E E E Q Q
|-5-----5----4-5-|-7---5---4-----|
|-7-----7----5---|-4---4---4-7---|
|-----8----8-6---|-4-4---4-4-4---|
|-7-7---7--------|-----------4---|
|----------------|---------------|
|----------------|---------------|


  E E E Q  E E E   E E E E  E  E E  E
|-4-----4--------|-7-----7-10------10-|
|-----5------5---|-----5----9----9----|
|-4-4---4--4---4-|-4-4-----10-10------|
|-6-----6--------|-6--------9---------|
|----------------|--------------------|
|----------------|--------------------|


   E E  E  Q  E  E  E    E  E  E  E  E  E  E  E
|--9-------9----11-12-|-14----12----11-----9----|
|-10---10-10----------|-10----------------10----|
|----9--------9-------|-11-11----11----11----11-|
|-11------11----------|-------------------------|
|---------------------|-------------------------|
|---------------------|-------------------------|


  E E E Q  E E  E   E E E E  E q   E
|-7-----7----9-11-|-9---7------------|
|-9---9-9---------|-9-------10-9--10-|
|---9------9------|-7-7---7----------|
|-9-----9---------|------------------|
|-----------------|------------------|
|-----------------|------------------|


    E   E E  Q   E  E  E    +E   E  E  E  E  E  E  E
|------------------------|---------------------------|
|-(10)------10--10-12-13-|-(13)-13-12----10----------|
|---9-----9--9---9-11-11-|-(11)----------------11----|
|--11--11---11--11-11-10-|-(10)-------10----10----10-|
|------------------------|---------------------------|
|------------------------|---------------------------|


                                   D.C.
   H     Q  S  S S  S   Q  E  E E  E E E
|---------------------|-7--7-------------*|
|-10----13--9---------|-9----10-9-10-9-7-*|
|-11----11----11-9-11-|------------------*|
|-10----10------------|-9----------------*|
|---------------------|------------------*|
|---------------------|------------------*|

4 comments on Viridian City

i'm lovin these old school

5

i'm lovin these old school pokemon tabs.

really great

I'm enjoying the challenge :)

that looks complecated. im

that looks complecated. im happy with my one note version :)

I've tryed playing the tabs

2

I've tryed playing the tabs and it doesn't seem to make any sense!!!!!