Login or Register to remove this ad. | Advertise Here

Title Screen (Pokémon Red & Blue & Yellow) Guitar Tab

Submitted: Sep 29, 2007 by EeinX

5
Average: 5 (5 votes)
Download | Listen
Game: Pokémon Red & Blue & Yellow
Composer(s): Junichi Masuda
Style: Transcription
Series: Pokemon

AutoScroll: Slow | Medium | Fast
Title Theme
Tabbed by EeinX
Composed by Junichi Masuda
Year:1995
Game: Pokemon
Platform: Gameboy

e|--------------------------------------------------------------------13--
B|-------------------------------------------------------------15-13------
G|----------------------------------------------------------16------------
D|---------15--17-17--17-17-17--17-17--15-15-15-15-15-16-17---------------
A|---14-17----------------------------------------------------------------
E|-15---------------------------------------------------------------------

e|-13-12-11-10------------------------------------------------------------
B|----------------------------------------15---13-12-13-15----------------
G|-------------10--9-8-7---------------16-------------------10-9----------
D|------------------------10-9-10---17---------------------------10-12----
A|------------------------------------------------------------------------
E|------------------------------------------------------------------------

e|-------------------------13-12-11-10------------------------------------
B|------------------15-13--------------15----------------------------15-13
G|---------------16-----------------------10--9-8-7---------------16------
D|--9-10-12---17------------------------------------10-9-10----17---------
A|------------------------------------------------------------------------
E|------------------------------------------------------------------------

e|-13-12-13-15-18-15---17-18--------18-19-20---------20-21-22-------------
B|---------------------------18-18-----------20-20------------------------
G|------------------------------------------------------------------------
D|------------------------------------------------------------------------
A|------------------------------------------------------------------------
E|------------------------------------------------------------------------

e|------------------------20-20-21-22-------------------------20-20-19----
B|------------------------------------------------------------------------
G|------------------------------------------------------------------------
D|-000-000-000-000-000-00-------------000-000-000-000-000-00--------------
A|------------------------------------------------------------------------
E|------------------------------------------------------------------------

repeat back from this thing on.
e|----------
B|-------15-
G|----16----
D|-17-------
A|----------
E|----------

32 comments on Title Screen

nice tab really accurate,

nice tab really accurate, but my guitar only goes to 19 frets XD

19 fret guitar? XD Time to

19 fret guitar? XD Time to upgrade. I'll never write a tab over the 22nd fret unless i have to.

Im a 100% accoustic person

Im a 100% accoustic person so i only have 12 >: MAAAYBE 13

You serious dude? Only 13? I

You serious dude? Only 13? I don't think I've ever seen a guitar with that few frets.

They have those junior

They have those junior acoustics and then they have mini-guitars. =)
On the other hand, I think he means that you can only access those frets with his acoustic.

well i also have an

well i also have an acoustic. So it doesnt have as many. Other than that great tab

oh and i do prefer to use

oh and i do prefer to use only the lower string unless i have to, because the high ones are annoying to play. But since it uses 20's on the top string ill let it slide

I waited like forever for

I waited like forever for this THANK YOU :D

Awesome Tab, BTW, My guitar

Awesome Tab, BTW, My guitar has 22 frets :P

my guitar has 24

my guitar has 24 frets...
ESP LTD MG-750...
2 humbuckers...
Floyd Rose Floating Tremolo...
Reverse Headstock...
Fine Tuners...
the shit...

Sweet Man thanks for this oh

Sweet Man thanks for this oh and its....

PEANUT BUTTA JELLY TIME!!!!!!!!!

my acoustic is a baby only

my acoustic is a baby
only 19 frets
how sad :[

Heh yeah, acoustic guitars

Heh yeah, acoustic guitars without cut-outs definitely suffer with these high fret tabs. Where Duo said he only can access 13 frets on his acoustic, I can only manage 14. A cut-out would add at least another 4 or 5 playable frets (which is kind of funny, because mine has 21 frets in total, but I'm stuck with playing only 14).

my acoustic has 20 frets and

my acoustic has 20 frets and my electric has 21

my acoustic also has 19

my acoustic also has 19 frets only,the last 6 are hard to reach though...>_

my acoustic's got 20, but

my acoustic's got 20, but I've seen guitars on the internet with as little as 10 frets...

instead of complaining about

instead of complaining about the number of frets how about you transfer the tab notes to a higher string?

"transfer the tab notes to a

"transfer the tab notes to a higher string?"

e|------------------------20-20-21-22-
B|------------------------------------
G|------------------------------------
D|-000-000-000-000-000-00-------------
A|------------------------------------
E|------------------------------------

uhhhh......

my guitar has over 53 frets!

my guitar has over 53 frets! (refer to the tab and comments on chemical plant zone - sonic 2)

im not quite sure where this tab is from. i thought it was the one that was in every game, but i just cant hear it.

i have a dean razorback

i have a dean razorback explosion

I got 24.

I got 24.

http://www.bestbuy.com/site/o

its a pretty nice begginer

its a pretty nice begginer guitar

damn, dude, mine's cheaper

damn, dude, mine's cheaper than that!!! i got mine @ walmart for $120!!

w-walmart? is it even

w-walmart? is it even playable?

I had a First Act, and the

I had a First Act, and the neck snapped. I think First Act is Wal-mart standard. I don't know, i have a 23 fret Ibanez...

Neck Snapped?

Wow, dude what did you do? I have a FirstAct (It doesnt blow up when i plug it in the amp so it good for me :D) Ive had it for a few years now but, neck snapped?

My acoustic has 21 frets and

My acoustic has 21 frets and I can hit them all. I'm a dirty cheater and play over the neck for those parts, though. :P

aweXome.

5

aweXome.

ok, its been a while and ive

ok, its been a while and ive figured it out. im giving it a 5 star coz it isnt your fault the bleeps and blops go sooooo high!

Dang...

5

My guitar's one fret too short...
But it's extremely accurate, good job!

huh

so far i have the most frets 24, on my Guitar Reasearch starter guitar, but my acoustic only has 20