Login or Register to remove this ad. | Advertise Here

Pallet Town (Pokémon Red & Blue & Yellow) Guitar Tab

Submitted: May 04, 2008 by PlasticDragon (Last updated: Oct 16, 2009)

4.333335
Average: 4.3 (3 votes)
Download | Listen
Game: Pokémon Red & Blue & Yellow
Composer(s): Junichi Masuda
Style: Arrangement, Fingerstyle
Series: Pokemon

AutoScroll: Slow | Medium | Fast
Game: Pokemon Red & Blue Versions
Title: Pallet Town
Composer: Junichi Masuda
Year: 1995                              

Arranged by: Dan Hill

 
 Q=100
 
 4/4
 
 Gtr I
  E  E E E  E E E E   Q.   E  E E E E
|-----------3p0-2p0-|-----------------|
|-3--1-0----0-------|-3----0--------0-|
|-0------2------2---|-0-------0-0-2---|
|-------------------|-----------------|
|-------------------|------0----------|
|-3------0------2---|-3-----------3---|
  Q.     Q.     Q     Q.   Q.     Q


  Q.   Q   E  E E   Q.   S  S H
|-----------------|-----------------|
|-1---------------|-0----1--0-------|
|-0----2------0-2-|-0---------2-----|
|------4---4--2---|------2----4-----|
|-----------------|--------------5--|
|-0----2--(2)-0---|-3----0----------|
  Q.   Q  +E  Q     Q.   Q.      Q


  E  E E E  E E E E   Q.   E  E E E E
|--------0--3-2-2-3-|-0---------------|
|-3--1-0------------|------3--3-----0-|
|-0-----------------|-0----2------0---|
|--------2------4---|-----------4-----|
|-------------------|------0----------|
|-3------0------2---|-3-----------3---|
  Q.     Q.     Q     Q.   Q.     Q


  E   E  E E  E  E  E E   Q.   Q   E E E
|-----------------------|----------------|
|-1---0-------3--1--0---|-0--------------|
|-0--(0)-2-0----------2-|-0--------0-2-4-|
|-------------4-(4)-4---|------2-----0---|
|-------------------0---|------------0---|
|-0--------2------------|-3----0---------|
  Q.       Q.       Q     Q.   Q.    Q


  E E E E E E E E   E  E E Q   E E E
|-----------------|------------------|
|-1-------3-----1-|-0----------------|
|---0---0---2-----|-0----0-0---0-2-4-|
|-----2---0---0---|----0---2-----4---|
|-3---------------|--------------5---|
|-----------------|-3----------------|
  H       H         Q.     Q.    Q


  E E E E E E E S S   E E E E E E E E
|-------------------|-----------------|
|-1---1---3-----1-3-|-0---------0-----|
|---0---0---2-------|-0---0---2---2-0-|
|-----2---0---0-----|---0---0---------|
|-3-----------------|---------0-------|
|-------------------|-3-----------3---|
  H       H           H       Q   Q


  E E E E E E E E   E E E E E E E E
|-----------------|-----------------|
|-------------0---|-----------------|
|-2-------0-------|-2-------0-------|
|-2---2---2-2---2-|-2---2---2---2---|
|---4---4---------|---4---4---4---4-|
|-5---------------|-5-----------5---|
  W                 W


                          D.C.
  E E E E E E E E   E E E E H
|-----------------|--------------*|
|-------------0---|-0-------2----*|
|---------0---0---|-----0-1-2----*|
|-4---4-----0---0-|-2-4-----2----*|
|-5---5---0-------|---------0----*|
|---5---5---------|--------------*|
  H       H         H       H

2 comments on Pallet Town

THATS HARD!!! nevertheless,

THATS HARD!!! nevertheless, i liked wat i could play. the start to a great adventure, finally tabbed.

very good

very good tab!