Login or Register to remove this ad. | Advertise Here

Mt. Moon (Pokémon Red & Blue & Yellow) Guitar Tab

Submitted: May 08, 2008 by PlasticDragon (Last updated: Oct 16, 2009)

5
Average: 5 (5 votes)
Download | Listen
Game: Pokémon Red & Blue & Yellow
Composer(s): Junichi Masuda
Style: Arrangement, Fingerstyle
Series: Pokemon

AutoScroll: Slow | Medium | Fast
Game: Pokemon Red & Blue
Title: Mt. Moon
Composer: Junichi Masuda
Year: 1995

Arranged by Dan Hill

Note: This song turned out to be a real pain because of how eccentric it is both
tonally and rhythmically, and this arrangement is even more complex and spastic.
I'm not too enamored with it, but it is what it is.  This is played with the high
e string tuned down a half step.  This text doesn't show the time signature changes
or the parts where it slows down, so listen to the MIDI.



      E  E  E  E  E  E  E  E     E  E  E  E  E  E  E  E     E  E  E  E  E  E  E  E   
D#||--0-----------------------|--0--4--0-----------------|--0--4--0-----------------|
B ||-----------2--------0--2--|-----------2--------0--2--|-----------2--------0-----|
G ||--------0--------0--------|-----------------0--------|-----------------0-----3--|
D ||-----1--------1-----------|--------------1-----------|--------------1-----------|
A ||--2--------2--------2-----|--2--------2--------2-----|--2--------2--------2-----|
E ||--------------------------|--------------------------|--------------------------|


  E  E  E  E  E  E  E  E     E  E  E  E  E  E  E  E     E  E  E  E  E  E  E  E   
--------------------------|--5-----------------------|--5--9--5-----------------|
--0--------2--------------|-----------7--------5--7--|-----------7--------5--7--|
--------0--------0--------|--------5--------5--------|-----------------5--------|
-----1--------1-----1--2--|-----6--------6-----------|--------------6-----------|
--2--------2--------------|--7--------7--------7-----|--7--------7--------7-----|
--------------------------|--------------------------|--------------------------|


  E  E  E  E  E  E  E  E     E  E  E  E  E  E  E  E     E  E  E  E  E  E  E  E   
--5--9--5-----------------|--------------------------|--0-----------------------|
-----------7--------5-----|--5--------7--------5-----|-----------2--------0--2--|
-----------------5-----8--|--------5--------5--------|--------0--------0--------|
--------------6-----------|-----6--------6--------6--|-----1--------1-----------|
--7--------7--------7-----|--7--------7--------7-----|--2--------2--------2-----|
--------------------------|--------------------------|--------------------------|


  E  E  E  E  E  E  E  E     E  E  E  E  E  E  E  E     E  E  E  E  E  E  E  E   
--0--4--0-----------------|--0--4--0-----------------|--------------------------|
-----------2--------0--2--|-----------2--------0-----|--0--------2--------------|
-----------------0--------|-----------------0-----3--|--------0--------0--------|
--------------1-----------|--------------1-----------|-----1--------1--------1--|
--2--------2--------2-----|--2--------2--------2-----|--2--------2--------2-----|
--------------------------|--------------------------|--------------------------|


                                      ^       >        >        >        >         
                                              |--3--|  |--3--|  |--3--|  |--3--|   
   E   E  E   E  E  E     E  E  E  E  Q       E  E  E  E  E  E  E  E  E  E  E  E   
-----------------7--7--|--8--8-----8--9----|--------------------------------------|
--10--10-----10--------|-------------------|--5--------0--------4-----------------|
---9---9------9--8--8--|--7--7-----7--5----|-----4--------0--------3-----3--------|
---7---7------7--8--8--|--9--9-----9--7----|--2-----2--------2--4-----4-----4-----|
-----------------------|-------------------|-----------------------------------6--|
-----------------------|-------------------|--------------------------------------|


  >        >        >        >                                                
  |--3--|  |--3--|  |--3--|  |--3--|     |--3--|  |--3--|  |--3--|  |--3--|   
  E  E  E  E  E  E  E  E  E  E  E  E     E  E  E  E  E  E  E  E  E  E  E  E   
--------------------------------------|--------------------------------------|
--3-----------------2-----------------|--1-----------------0-----------------|
-----2-----2-----------1-----1--------|-----0-----0-----------0-----0--------|
--3-----3-----3-----2-----2-----2-----|--1-----1-----1-----2-----2-----2-----|
-----------------5-----------------4--|-----------------3-----------------2--|
--------------------------------------|--------------------------------------|


                             ^                                            ^           
  |--3--|  |--3--|  |--3--|                                                           
  E  E  E  E  E  E  E  E  E  Q       E  E  E  E  E  E      E   E  E   E   Q    E  E   
----------------------------------|--8--8-----8--7--7--|-----------------------------|
-----------------------------1----|--------------------|--10--10-----10---9----------|
--3-----------------2--------4----|--7--7-----7--8--8--|---9---9------9--10----------|
-----3-----3-----------2-----2----|--9--9-----9--8--8--|---7---7------7--------1-----|
--1-----4-----4-----3-----3--0----|--------------------|-----------------11-------2--|
-----------------6----------------|--------------------|-----------------------------|


  E  E  E  E  E  E  E  E     E  E  E  E  E  E  E  E     E  E  E  E  E  E  E  E   
--------------------------|--0--4--0-----------------|--0--4--0-----------------|
--2--------0-----------0--|-----------2--------0--2--|-----------2--------0--2--|
--0--------0--------3-----|--0--------0--------0-----|--0--------0--------0-----|
-----1--------1-----------|--------------1-----------|--------------1-----------|
--------2--------2--------|-----------------2--------|-----------------2--------|
--------------------------|--------------------------|--------------------------|


  E  E  E  E  E  E  E  E     E  E  E  E  E  E  E  E     E   E  E  E  E  E  E  E   
--0--------4--------------|--------------------------|--6--10--6-----------------|
--------------------8-----|-----------6-----------6--|------------8--------6--8--|
--0--------0--------------|--6--------6--------9-----|------------------6--------|
-----1--------1--------7--|--------7--------7--------|---------------7-----------|
--------2--------2--8-----|-----8--------8-----------|--8---------8--------8-----|
--------------------------|--------------------------|---------------------------|


  E  E  E   E  E  E  E  E     E  E  E  E  E  E  E  E     E   E  E  E  E  E  E   E   
--6--------10--------------|--------------------------|--6--10--6-----------6--10--|
---------------------8-----|-----------6-----------6--|------------8---------------|
--------6---------6--------|--6--------6--------9-----|------------------6---------|
-----7---------7--------7--|--------7--------7--------|---------------7------------|
--8------------------8-----|-----8--------8-----------|--8---------8--------8------|
---------------------------|--------------------------|----------------------------|


  E  E  E  E  E  E  E   E     E  E  E  E  E  E  E  E     E  E  E  E  E  E  E  E   
--6-----------6--------10--|--------------------------|--------------5--9--5-----|
-----8---------------------|--------7--------------5--|-----------5-----------7--|
-----------6--------6------|-----6--------5--------5--|--------8-----------------|
--------7--------7---------|--7--------6--------6-----|-----6--------------------|
-----8--------8---------8--|--------7--------7--------|--7-----------7--------7--|
---------------------------|--------------------------|--------------------------|


  E  E  E  E  E  E  E  E     E  E  E  E  E  E  E  E      E  E  E   Q.      E  E   
--------------5--9--5-----|--------5--------9--------|---------------------------|
--------5--7-----------7--|--------------------------|------8-----------------8--|
-----5--------------------|-----5--------5--------5--|---8-----8-----------8-----|
--6-----------------------|--6--------6--------6-----|------------11-------------|
--------7-----7--------7--|--------7-----------------|--10----------------10-----|
--------------------------|--------------------------|---------------------------|


  E   Q.     E  E  E  E     E  E  E  E  E  E  E  E     E  E  E  E  E  E  E  E   
-------------------------|-----------5--------5-----|-----5--------5--------5--|
-------------------------|--4--5--5--------5--------|--5--------5--------5-----|
--8----------------5--6--|--------8-----8--6-----6--|--8-----8--6-----6--8-----|
-----11---------6--------|--------------------------|--------------------------|
-------------7-----------|--------------------------|--------------------------|
-------------------------|--------------------------|--------------------------|


  E  E  E  E  E  E  E  E     E  E  E  E  E  E  Q      
--------5--------5--------|--5--------5-----5--L----||
-----5--------5--------5--|--------5--------5--L----||
--8--6-----6--8-----8--6--|-----6--8-----8--6--L----||
--------------------------|-------------------------||
--------------------------|-------------------------||
--------------------------|-------------------------||

2 comments on Mt. Moon

Wow. This is great! Lol

Wow. This is great! Lol

Amazing O:

5

Amazing O: