Login or Register to remove this ad. | Advertise Here

Gym (Pokémon Red & Blue & Yellow) Guitar Tab

Submitted: Sep 29, 2007 by Stamen47 (Last updated: Sep 08, 2009)

5
Average: 5 (7 votes)
Download | Listen
Game: Pokémon Red & Blue & Yellow
Composer(s): Junichi Masuda
Style: Arrangement, Fingerstyle
Series: Pokemon

AutoScroll: Slow | Medium | Fast
Gym
Pokemon
Composed by Junichi Masuda

Guitar
     Q.     S S Q.     S S    H        Q    Q         E  E  E  E  E  E  E  E
E||------------------------|---------------------||---------------------------|
B||--1--------1------------|---------------------||---1--------------------1--|
G||---------0---3--------3-|--2--------2----4----||*--0-----------------0-----|
D||--2----------0------3---|---------------------||*-----2-----2-----2-----2--|
A||--3----------1----------|--3--------3----5----||---3-----3-----3-----3-----|
E||------------------------|--1--------1----3----||---------------------------|

  E  S S E  E  E  E  E  E     E  E  E  E  E  E  E  E
---------------------------|--------------------------|
--3------------------------|--1--------------------1--|
-------3-3-----------------|--0-----------------0-----|
-----3------3-----3-----3--|-----2-----2-----2-----2--|
---------------------------|--3-----3-----3-----3-----|
--3------3-----3-----3-----|--------------------------|

  E  S S E  E  E  E  E  E     E  E  E  E  E  E  E  E
---------------------------|--0--------------------0--|
---------3-----------------|--------------------3-----|
--3--3-5-------------------|--0-----------------------|
-----3------3-----3-----3--|-----2-----2-----2-----2--|
---------------------------|--3-----3-----3-----3-----|
--3------3-----3-----3-----|--------------------------|

  E  S S E  E  E  S S E  E     E  E  E  E  E  E  E  E
---------------6------------|--0--------------------0--|
--6----3-3----------6-6-----|--------------------3-----|
----------------------------|--0-----------------------|
-----3------3-----3------3--|-----2-----2-----2-----2--|
----------------------------|--3-----3-----3-----3-----|
--3------3-----3------3-----|--------------------------|

  E  S S E  E  E  E  E  E     E  E  E  E  E  E  E  E
---------6-----------------|--------------------------|
--6--3-6-------------------|-----------1--------------|
---------------------------|--0-----------------0-----|
-----3------3-----3-----3--|-----2-----2-----2-----2--|
---------------------------|--3-----3-----3-----3-----|
--3------3-----3-----3-----|--------------------------|

  E  E  E  E  E  E  E  E     E  S S E  E  E  E  E  E
--------------------------|---------------------------|
--------------------------|---------------------1-----|
--3-----------------------|---------0--------0-----0--|
--------7-----5-----3-----|--2--2-3----------------2--|
-----5-----5-----5-----5--|--3------3-----3-----3-----|
--3-----3-----3-----3-----|-----3------3-----3--------|

  E  E  E  E  E  E  E  E     E  E  E  E  E  E  E  E
--------------------------|--------------------------|
--------------------------|-----------1--------------|
--3-----------------------|--0-----------------0-----|
--------7-----5--------3--|-----2-----2-----2-----2--|
-----5-----5-----5--7--5--|--3-----3-----3-----3-----|
--3-----3-----3-----3-----|--------------------------|

  E  E  E  E  E  E  E  E     E  S S E  E  E  S S E  E
--------------------------|----------------------------|
--------------------------|----------------------------|
--3-----------------------|---------0-----0--0-2-3-----|
--------7-----5-----3-----|--2--2-3----------2------2--|
-----5-----5-----5-----5--|--3------3-----3------3-----|
--3-----3-----3-----3-----|-----3------3---------------|

  E  S S E  E  E  E  E  E     Q.     S S Q.     S S    H        Q    Q
---------0-----------------|------------------------|----------------------||
--1--1-3-------------------|--1--------1------------|----------------------||
--0------------------------|---------0---3--------3-|--2--------2----4----*||
-----2------2-----2-----2--|--2----------0------3---|---------------------*||
--3------3-----3-----3-----|--3----------1----------|--3--------3----5-----||
---------------------------|------------------------|--1--------1----3-----||

  W
-------------------||
--1----------------||
--0----------------||
--2----------------||
--3----------------||
-------------------||

Duration Legend
---------------
W - whole
H - half
Q - quarter
E - 8th
S - 16th
T - 32nd
X - 64th
. - note dotted
|-n-|  - n-tuplets

4 comments on Gym

Looks alright but i'ma

Looks alright but i'ma drummer come out with some kick butt tabs 4 me will ya

u dont get tab for drums do

u dont get tab for drums do ya?

man, we need to rename this

5

man, we need to rename this site "gameguitartabs." we don't do drum tabs. anyway, awesome tab.

this was really confusing at

5

this was really confusing at first, but when i heard the tune, it flew into my head, so cool! :( :| :)!!!!!!!!!!!!