Login or Register to remove this ad. | Advertise Here

Gym (Pokémon Red & Blue & Yellow) Guitar Tab

Submitted: Sep 29, 2007 by archard (Last updated: Sep 08, 2009)

4
Average: 4 (6 votes)
Download | Listen
Game: Pokémon Red & Blue & Yellow
Composer(s): Junichi Masuda
Style: Fingerstyle, Transcription
Series: Pokemon

AutoScroll: Slow | Medium | Fast
                            Pokemon Red Gym Theme                               

E||--8----L------8-6----L------6-|--5------L---5---L---7---L---|
B||--5----L----8-------------6---|-----------------------------|
G||----------------7----L--------|--5------L---5---L---7---L---|
D||------------------------------|-----------------------------|
A||------------------------------|-----------------------------|
E||------------------------------|-----------------------------|

--8--------L--------8--|--10----------------------|--8--------L--------8--|
-----------------8-----|-------11-11--------L-----|-----------------8-----|
-----------------------|--------------------------|-----------------------|
-----------------------|--------------------------|-----------------------|
-----------------------|--------------------------|-----------------------|
-----------------------|--------------------------|-----------------------|

--6--6-8-10--------L-----|--12--------L-----10--12--|
-------------------------|--------------------------|
-------------------------|--------------------------|
-------------------------|--------------------------|
-------------------------|--------------------------|
-------------------------|--------------------------|

--13---10-10---L---18---------------|--------------------------|
------------------------18-18---L---|--17--------L-----15--17--|
------------------------------------|--------------------------|
------------------------------------|--------------------------|
------------------------------------|--------------------------|
------------------------------------|--------------------------|

------------18--------L-----|---------------------------------|
--18-----18-----------------|---------------------------------|
------19--------------------|-------------17----L-------------|
----------------------------|--17----L---------------17---L---|
----------------------------|---------------------------------|
----------------------------|---------------------------------|

--------------------------------------|-----------------------8-----|
--------------------------------------|----------8----L----8-----8--|
--15---L---14---L---12---L---10---L---|--9--9-10--------------------|
--------------------------------------|-----------------------------|
--------------------------------------|-----------------------------|
--------------------------------------|-----------------------------|

--6---L---5---L---3---L---0--1--|--3----L----8----L------------|
--------------------------------|----------------------8---L---|
--------------------------------|------------------------------|
--------------------------------|------------------------------|
--------------------------------|------------------------------|
--------------------------------|------------------------------|

--6---L---5---L---3---L---1---L---|--0--0-1-3---L---3--3-5-6---L---|
----------------------------------|--------------------------------|
----------------------------------|--------------------------------|
----------------------------------|--------------------------------|
----------------------------------|--------------------------------|
----------------------------------|--------------------------------|

--8--8-10-12--------L-----|---0----L---------------------------|
--------------------------|--13----L-------13-11----L-------11-|
--------------------------|-------------12---------------10----|
--------------------------|-------------------12----L----------|
--------------------------|------------------------------------|
--------------------------|------------------------------------|

--------------------------------|--8------L------------||
--10------L---10---L---12---L---|----------------------||
--------------------------------|--9------L------------||
--10------L---10---L---12---L---|----------------------||
--------------------------------|----------------------||
--------------------------------|----------------------||

9 comments on Gym

lol this remember me at the

lol this remember me at the zelda theme ^^'

awsome :p

awsome :p

The gym theme was cool! But

The gym theme was cool! But if anyone could post the gym battle theme, that would be even more awesome!

7-0-0-0-0-0-0-7-0-0-0-0-8-7-0

7-0-0-0-0-0-0-7-0-0-0-0-8-7-0-0-0-0-0-0-0-7-0-0-0-0-6-7

on top string somethin like that cant remember rest lol

great tune my fave game tune!

Great tab and great game,

Great tab and great game, but, and I could be wrong about this, it seems a little high. I only have blue version so I'm basing it on that, please correct me if i'm wrong.

quite good you know. this

5

quite good you know. this one is simple and easy to learn. sounds good so i'm gone try to play it!!!! go free minks!!!!

very nice!!!!!!!!!!!!!!!!!!!!!!!!!!!

5

i'm gonna learn this right away:)

what does the L mean?

what does the L mean?

Tied note

Tied note