Login or Register to remove this ad. | Advertise Here

Elite Four (Pokémon Red & Blue & Yellow) Guitar Tab

Submitted: Feb 14, 2009 by laoise (Last updated: Jan 15, 2010)

4.25
Average: 4.3 (4 votes)
Download | Listen
Game: Pokémon Red & Blue & Yellow
Composer(s): Junichi Masuda
Style: Fingerstyle, Transcription
Series: Pokemon

AutoScroll: Slow | Medium | Fast
#----------------------------------PLEASE NOTE---------------------------------#
#This file is the author's own work and represents their interpretation of the #
#song. You may only use this file for private study, scholarship, or research. #
#------------------------------------------------------------------------------##

Name of song: Elite Four
Name of game: Pokemon
Composer of song: Junichi Masuda
Name of tabber: Laoise Earle
Date tab was made: 09/02/09
 
 Q=120
 
  Q  +S  S S S Q  +S  S S S   H    Q  Q    H    +Q   E E
|---------------------------|------------|----------------|
|-1--(1)-----1--------------|---------0--|-1----(1)----1--|
|----------0---3--(3)-----3-|-2----2-----|-----------0----|
|-2--(2)-------0--(0)---3---|---------0--|----------------|
|---------------------------|-3----3-----|----------------|
|---------------------------|------------|----------------|


  S E S Q  +Q   +S  S E   H    +Q   E E
|-----------------------|---------------|
|-3---------------------|-1----(1)----1-|
|-----3-3--(3)--(3)-----|-----------0---|
|-----------------------|---------------|
|-----------------------|---------------|
|-----------------------|---------------|


  S S S S Q  +Q   +S  S E   H    +Q   E E
|-------------------------|-0----(0)----0--|
|-------1-3--(3)--(3)-----|-----------3----|
|-3---3-------------------|----------------|
|-------------------------|----------------|
|-------------------------|----------------|
|-------------------------|----------------|


  S E S Q  S E S Q    H    +Q   E E   S S S S Q  +Q   +S  S E
|-1--------6---1-1--|-0----(0)----0-|-1-----1-6--(6)--(6)------|
|-----3-3-----------|-----------3---|-----3--------------------|
|-------------------|---------------|--------------------------|
|-------------------|---------------|--------------------------|
|-------------------|---------------|--------------------------|
|-------------------|---------------|--------------------------|


  Q  +S  S E +Q   Q    Q  Q  Q  Q    E S S Q  +E  E E E   Q  Q  Q  E E
|--------------------|-------------|--------------------|--------------|
|----------1-(1)-----|-------------|----------------1---|--------------|
|-0--(0)----------0--|-3--2--0-----|-------0--(0)-0---0-|-3--2--0------|
|--------------------|----------3--|-2-2-3--------------|----------2-3-|
|--------------------|-------------|--------------------|--------------|
|--------------------|-------------|--------------------|--------------|


  Q  +S  S E +Q   Q    Q  Q  Q  Q    S S S S Q  E S S Q
|--------------------|-------------|---------------------|
|----------1-(1)-----|-------------|---------------------|
|-0--(0)----------0--|-3--2--0-----|---------0--0-0-2-3--|
|--------------------|----------3--|-2---2-3-------------|
|--------------------|-------------|---------------------|
|--------------------|-------------|---------------------|


  S S S S Q  +Q   +S  S E   Q  +S  S S S Q  +S  S S S   H    Q  Q
|-------------------------|---------------------------|------------|
|-1---1-3-5--(5)--(5)-----|-1--(1)-----1--------------|------------|
|-------------------------|----------0---3--(3)-----3-|-2----2--4--|
|-------------------------|-2--(2)-------0--(0)---3---|------------|
|-------------------------|---------------------------|-3----3--5--|
|-------------------------|---------------------------|------------|


  H    +Q   E E   S E S Q  +Q   +S  S E
|---------------|-----------------------|
|-1----(1)----1-|-3---------------------|
|-----------0---|-----3-3--(3)--(3)-----|
|---------------|-----------------------|
|---------------|-----------------------|
|---------------|-----------------------|


  H    +Q   E E   S S S S Q  +Q   +S  S E
|---------------|--------------------------|
|-1----(1)----1-|-------1-3--(3)--(3)------|
|-----------0---|-3---3--------------------|
|---------------|--------------------------|
|---------------|--------------------------|
|---------------|--------------------------|


  H    +Q   E E   S E S Q  S E S Q    H    +Q   E E   S S S S Q  +Q   +S  S E
|-0----(0)----0-|-1--------6---1-1--|-0----(0)----0-|-1-------6--(6)--(6)------|
|-----------3---|-----3-3-----------|-----------3---|-------6------------------|
|---------------|-------------------|---------------|-----7--------------------|
|---------------|-------------------|---------------|--------------------------|
|---------------|-------------------|---------------|--------------------------|
|---------------|-------------------|---------------|--------------------------|


  Q  +S  S E +Q   Q    Q  Q  Q  Q    E S S Q  +E  E E E   Q  Q  Q  E E
|--------------------|-------------|--------------------|--------------|
|----------1-(1)-----|-------------|----------------1---|--------------|
|-0--(0)----------0--|-3--2--0-----|-------0--(0)-0---0-|-3--2--0------|
|--------------------|----------3--|-2-2-3--------------|----------2-3-|
|--------------------|-------------|--------------------|--------------|
|--------------------|-------------|--------------------|--------------|


  Q  +S  S E +Q   Q    Q  Q  Q  Q    S S S S Q  E S S Q
|--------------------|-------------|---------------------|
|----------1-(1)-----|-------------|---------------------|
|-0--(0)----------0--|-3--2--0-----|---------0--0-0-2-3--|
|--------------------|----------3--|-2---2-3-------------|
|--------------------|-------------|---------------------|
|--------------------|-------------|---------------------|


  S S S S Q  +Q   +S  S E   Q  +S  S S S Q  +S  S S S   H    Q  Q
|-------------------------|---------------------------|------------|
|-1---1-3-5--(5)--(5)-----|-1--(1)-----1--------------|---------0--|
|-------------------------|----------0---3--(3)-----3-|-2----2-----|
|-------------------------|-2--(2)-------0--(0)---3---|---------0--|
|-------------------------|---------------------------|-3----3-----|
|-------------------------|---------------------------|------------|


  H    +Q   Q    H    +Q   Q    W          +Q   +S  S E H
|--------------|--------------|-3--------|-(3)--(3)----------*|
|-1----(1)-----|-3----(3)-----|-5--------|-(5)--(5)----------*|
|--------------|--------------|-5--------|-(5)--(5)----------*|
|--------------|-0----(0)-----|-5--------|-(5)--(5)----------*|
|-3----(3)-----|--------------|-7--------|-(7)--(7)----------*|
|--------------|--------------|----------|-------------------*|

1 comment on Elite Four

Is that final chord intended

4

Is that final chord intended just to hurt my hand? :P