Login or Register to remove this ad. | Advertise Here

Ecruteak City (Pokémon Gold & Silver) Guitar Tab

Submitted: Feb 19, 2008 by Zelos (Last updated: Feb 19, 2008)

4.57143
Average: 4.6 (7 votes)
Download | Listen
Game: Pokémon Gold & Silver
Composer(s): Junichi Masuda, Go Ichinose
Style: 2 or more instruments, Transcription
Series: Pokemon

AutoScroll: Slow | Medium | Fast
Ecruteak City      
~Pokemon Gold/Silver~
Composed by: Junichi Masuda
Arranged by: Zelos
Difficulty: Intermediate (Part with 16th notes)

BPM = 97                                


Guitar I

      H        E  Q    E     H        E  Q    E     W                 
E||-----------------------|----------------------|-------------------|
B||---------------1-------|--------------1-------|-------------------|
G||*----------------------|----------------------|-------------------|
D||*----------------------|----------------------|-------------------|
A||-----------------------|----------------------|-------------------|
E||-----------------------|----------------------|-------------------|


  Q    Q    Q    Q       W                   H        E  E  E  E   
----------------------|-------------------|--------------3--5--6--|
--0----1----3---------|-------------------|-----------------------|
----------------------|-------------------|-----------------------|
----------------------|-------------------|-----------------------|
----------------------|-------------------|-----------------------|
----------------------|-------------------|-----------------------|


  H        E  E  E  E     Q    E   Q    E  Q       T Q    T S  E  E  Q    E   
--------------------8--|--L----9--10-------7----|----------------------------|
-----------9--8--6-----|------------------------|--------------------8-------|
-----------------------|------------------------|-----------------9----------|
-----------------------|------------------------|--8-9----L---10-------------|
-----------------------|------------------------|----------------------------|
-----------------------|------------------------|----------------------------|


  Q    E  E  E   E  E   E      Q     Q     E  Q.      
--6-----------------9--12--|-------------------------|
----------8-----11---------|-------------------------|
---------------------------|--------------10---------|
---------------------------|--------10---------------|
---------------------------|--12---------------------|
---------------------------|-------------------------|


  T  Q    T S S S  E  E  Q     
------------------------------|
--------------8---10--8-------|
--9-10----L-------------------|
------------------------------|
------------------------------|
------------------------------|


   S  S  S  S  S  S  S  S  S  S  S  S  S  S  S  S  
--12----------------12----12----------------12----|
-----13-10-13-10-13----13----13-10-13-10-13----13-|
--------------------------------------------------|
--------------------------------------------------|
--------------------------------------------------|
--------------------------------------------------|


   S  S  S  S  S  S  S  S  S  S  S  S  S  S  S  S  
--10----------------10----10----------------------|
-----12-10-12-10-12----12----12-10-12-10-12-10-12-|
--------------------------------------------------|
--------------------------------------------------|
--------------------------------------------------|
--------------------------------------------------|


   S S S S S S  S S  S S S S S S  S S    S S S S S S S S S S S S S S S S  
--10-7---7---7-10-7-10-7---7---7-10-7-|--5-0-----0-----------------------|
-------8---8-------------8---8--------|------1-----1-----1---------------|
--------------------------------------|--------2-----2-----2-----2-------|
--------------------------------------|----------------2-----2-----2-----|
--------------------------------------|------------------------3-----3-0-|
--------------------------------------|----------------------------------|


   S  S S  S S  S S  S  S  S S  S S  S S  S  
--------8----8----8-13-------8----8----8-13-|
-----10---10---10---------10---10---10------|
--10-------------------10-------------------|
--------------------------------------------|
--------------------------------------------|
--------------------------------------------|


   S  S  S  S  S  S  S  S  S  S  S  S  S  S  S  S     H         H         
--------10----10----10-15-------10----10----10-15-|--12--------15--------|
-----12----12----12----------12----12----12-------|----------------------|
--12----------------------12----------------------|----------------------|
--------------------------------------------------|----------------------|
--------------------------------------------------|----------------------|
--------------------------------------------------|----------------------|


  S S S S S S S S S S S  S S  S S S  
--6---------------------------------|
----8-5---8-5-----5-----------------|
--------6-----6-----6---------------|
----------------8-----8----8--------|
------------------------10---10-7---|
----------------------------------9-|


   S  S  S  S  S  S  S  S  S  S  S  S  S  S  S  S  
--12----------------12----12----------------12----|
-----13-10-13-10-13----13----13-10-13-10-13----13-|
--------------------------------------------------|
--------------------------------------------------|
--------------------------------------------------|
--------------------------------------------------|


   S  S  S  S  S  S  S  S  S  S  S  S  S  S  S  S  
--10----------------10----10----------------------|
-----12-10-12-10-12----12----12-10-12-10-12-10-12-|
--------------------------------------------------|
--------------------------------------------------|
--------------------------------------------------|
--------------------------------------------------|


   S S S S S S  S S  S S S S S S  S S    S S S S S S S S S S S S S S S S  
--10-7---7---7-10-7-10-7---7---7-10-7-|--5-0-----0-----------------------|
-------8---8-------------8---8--------|------1-----1-----1---------------|
--------------------------------------|--------2-----2-----2-----2-------|
--------------------------------------|----------------2-----2-----2-----|
--------------------------------------|------------------------3-----3-0-|
--------------------------------------|----------------------------------|


   S  S S  S S  S S  S  S  S S  S S  S S  S  
--------8----8----8-13-------8----8----8-13-|
-----10---10---10---------10---10---10------|
--10-------------------10-------------------|
--------------------------------------------|
--------------------------------------------|
--------------------------------------------|


   S  S  S  S  S  S  S  S  S  S  S  S  S  S  S  S     H         H           
--------10----10----10-15-------10----10----10-15-|--12--------15---------||
-----12----12----12----------12----12----12-------|-----------------------||
--12----------------------12----------------------|----------------------*||
--------------------------------------------------|----------------------*||
--------------------------------------------------|-----------------------||
--------------------------------------------------|-----------------------||




Duration Legend
---------------
W - whole
H - half
Q - quarter
E - 8th
S - 16th
. - note dotted

Tablature Legend
----------------
L - tied note


Ecruteak City      
~Pokemon Gold/Silver~
Composed by: Junichi Masuda
Arranged by: Zelos
Difficulty: Easy (Only hard part would be reaching 
the high frets on an acoustic guitar)

BPM = 97                                


Guitar II

      H        E  T  T  T  Q    T    H        E  T  T  T  Q    T  
E||-----------------------12----L-|----------------------13----L-|
B||--------------------13---------|-------------------13---------|
G||*----------------12------------|----------------14------------|
D||*------------------------------|------------------------------|
A||-------------------------------|------------------------------|
E||-------------------------------|------------------------------|


  H        E   E  E  E     Q     Q    Q    Q       T Q    S. S S H         
--------------10--8-----|-------------7---------|-------------------------|
---------------------9--|--8----10--------------|--2-3-------1---1--------|
------------------------|------------------0----|-------------------------|
------------------------|-----------------------|-------------------------|
------------------------|-----------------------|-------------------------|
------------------------|-----------------------|-------------------------|


  Q.     E  E  E  E  E     E  S S E  S. T H           E  S S E  Q.     Q     
--1------0-----0--1--3--|--0-----------------------|--0--3---0--------------|
------------------------|-----1---1-------1--------|------------3------4----|
------------------------|------------2--2----------|------------------------|
------------------------|--------------------------|------------------------|
------------------------|--------------------------|------------------------|
------------------------|--------------------------|------------------------|


  T  Q    S. S S H            Q.      E  E   E   E   S. T  
--9-10----L--8---8--------|--13------12-----12--13--15----|
--------------------------|----------------------------17-|
--------------------------|-------------------------------|
--------------------------|-------------------------------|
--------------------------|-------------------------------|
--------------------------|-------------------------------|


   E   S S  E   S S  E   S S  E   S. T     Q.      S S  Q    E  E   
--17--12---12--------------------------|--12------10---10----------|
---------------13---13--10---12--13-12-|------------------------8--|
---------------------------------------|---------------------9-----|
---------------------------------------|---------------------------|
---------------------------------------|---------------------------|
---------------------------------------|---------------------------|


  T  Q.     S. E  S S E  E     Q    E  E  E  E  Q       Q.     Q    E  Q     
----------------------0-----|-------------------1----|--3------1-------0----|
--9-10------L------------3--|--L----------0----------|----------------------|
------------------5---------|-------5----------------|----------------------|
---------------7------------|------------------------|----------------------|
----------------------------|------------------------|----------------------|
----------------------------|------------------------|----------------------|


  E  S S E  S E.  E  E  E     H        E  E  E  E     Q    E  E  E  E  E  E   
---------------------------|--------------1--0-----|-------------------------|
--3--1---0--1-----0-----1--|--------------------3--|--1-------0-----1--3--4--|
---------------------------|--2--------------------|-------------------------|
---------------------------|-----------------------|-------------------------|
---------------------------|-----------------------|-------------------------|
---------------------------|-----------------------|-------------------------|


  E  H.           E     Q    Q    Q    Q       T Q    S. S S S S E  T S. S S  
--0------------------|------------1----3----|--4-5----L--0---0---0--4-5--0---|
---------------------|--3----2--------------|--------------------------------|
---------------------|----------------------|--------------------------------|
---------------------|----------------------|--------------------------------|
---------------------|----------------------|--------------------------------|
---------------------|----------------------|--------------------------------|


  E  S S E  Q.     E  E     Q.     S S S S E  E  S S  
--0-------------------1--|--3-----------------3------|
-----3---2--3------0-----|---------3---3---3-----3---|
-------------------------|---------------------------|
-------------------------|---------------------------|
-------------------------|---------------------------|
-------------------------|---------------------------|


  T Q    S. E  Q    E  E     H        E  E  E  E     H        E  E  E  E   
--6-7----L--8--5----------|--------------3--1--0--|-----------------------|
--------------------------|--6--------------------|--3-----------0--1--3--|
-----------------------5--|-----------------------|-----------------------|
--------------------7-----|-----------------------|-----------------------|
--------------------------|-----------------------|-----------------------|
--------------------------|-----------------------|-----------------------|


  H        H           
--0------------------||
---------------------||
--------------------*||
--------------------*||
---------------------||
---------------------||




Duration Legend
---------------
W - whole
H - half
Q - quarter
E - 8th
S - 16th
. - note dotted

Tablature Legend
----------------
L - tied note


Ecruteak City      
~Pokemon Gold/Silver~
Composed by: Junichi Masuda
Arranged by: Zelos
Difficulty: Easy to Medium (Just some backing)

BPM = 97                                


Guitar III

      E  E  E  H        E     E  E  E  H        E     E  E  E  H        E   
E||------------0--------L--|--------0--1--------L--|-----------0--------L--|
B||---------3--------------|-----------------------|--------3--------------|
G||*-----0-----------------|-----2-----------------|-----0-----------------|
D||*-----------------------|-----------------------|-----------------------|
A||---3--------------------|--3--------------------|--3--------------------|
E||------------------------|-----------------------|-----------------------|


  Q    Q    Q    E  E     E  E  E  H        E     E  E  E  E  E  E  E  E   
--3----2----1----------|-----------0--------L--|-----------------------0--|
-----------------0-----|--------3--------------|-----------3-----2--3-----|
--------------------0--|-----0-----------------|--------3-----------------|
-----------------------|-----------------------|-----5--------------------|
-----------------------|--3--------------------|--4-----------------------|
-----------------------|-----------------------|--------------------------|


  E  S S E  S S H           E  E  E  E  E  S Q    S  
---------0--1---4--------|--------1--4--7-----------|
-------------------------|-----3-----------8-9----L-|
-----2-------------------|--0-----------------------|
--0----------------------|--------------------------|
-------------------------|--------------------------|
-------------------------|--------------------------|


  E  E  E  E  E  E   E   E     E  E  E  E  E  E  E  S S  
-----------0--3--8--10--12--|--------------0-----1--3---|
--------3-------------------|--------3--2-----3---------|
-----0----------------------|-----3---------------------|
----------------------------|---------------------------|
--3-------------------------|--4------------------------|
----------------------------|---------------------------|


  H         E   S S  E   S S    E  E  E  E  E  E  E  E   
--------------------10--12---|--------------------------|
-----------10--13------------|--------------------0--3--|
-----------------------------|--------0-----2--0--------|
--3--------------------------|-----0-----4--------------|
-----------------------------|--------------------------|
-----------------------------|--3-----------------------|


  Q    S S S S Q    S S S S    Q    S S S S S S E.  S S S  
----------------------------|-----------------------------|
----------------------------|-----------------------------|
----------------------------|-----------------------------|
--3----L---3---3----L-------|--3----L---3---3---3-----3---|
------------------------3---|-----------------------------|
----------------------------|-----------------------------|


  Q    S S S S S S E.  S S S    Q    S S S S S S S S S S S S  
-----------------------------|-------------------------------|
-----------0-------------0---|-------------------------------|
-----------------------------|--2----L---2---1---1---0-------|
--2----L-------2---2---------|---------------------------4---|
-----------------------------|-------------------------------|
-----------------------------|-------------------------------|


  Q    S S S S S S S S S S S S    Q    S S S S S S S S S S S S  
-------------------------------|-------------------------------|
-------------------------------|-----------3-------------------|
-----------2-------------------|--0----L-------0---0---2---3---|
--0----L-------0---0---2---3---|-------------------------------|
-------------------------------|-------------------------------|
-------------------------------|-------------------------------|


  T E.  T Q    Q    Q       Q    Q    Q    Q       Q    S S S S Q    S S S S  
----------0----3----7----|--6-------------------|----------------------------|
--0-1---L----------------|-------8----5---------|----------------------------|
-------------------------|-----------------6----|----------------------------|
-------------------------|----------------------|--3----L---3---3----L-------|
-------------------------|----------------------|------------------------3---|
-------------------------|----------------------|----------------------------|


  Q    S S S S S S E.  S S S    Q    S S S S S S E.  S S S  
-----------------------------|-----------------------------|
-----------------------------|-----------0-------------0---|
-----------------------------|-----------------------------|
--3----L---3---3---3-----3---|--2----L-------2---2---------|
-----------------------------|-----------------------------|
-----------------------------|-----------------------------|


  Q    S S S S S S S S S S S S    Q    S S S S S S S S S S S S  
-------------------------------|-------------------------------|
-------------------------------|-------------------------------|
--2----L---2---1---1---0-------|-----------2-------------------|
---------------------------4---|--0----L-------0---0---2---3---|
-------------------------------|-------------------------------|
-------------------------------|-------------------------------|


  Q    S S S S S S S S S S S S    T E.  T Q    Q    Q       
-------------------------------|--------------------------||
-----------3-------------------|--0-1---L-----------------||
--0----L-------0---0---2---3---|----------0--------------*||
-------------------------------|---------------2----0----*||
-------------------------------|--------------------------||
-------------------------------|--------------------------||




Duration Legend
---------------
W - whole
H - half
Q - quarter
E - 8th
S - 16th
T - 32nd
. - note dotted


Tablature Legend
----------------
L - tied note

13 comments on Ecruteak City

Very cool, this was my

5

Very cool, this was my favorite two pokemon games. Haven't played the new ones. Great job.

I love these games a lot.

I love these games a lot. But the new ones are not very good. Actually they are not good at all.

That's your opinion. So

That's your opinion. So far, every one of the pokemon games have made the top 25 best selling video games of all time, red and blue version being the cream of the crop. I love all the games, personally.

I don't know how to explain

I don't know how to explain it, but it just doesn't have that same old "feel" to it I guess you can say. Besides that I love every other pokemon games

Same here, Yoshi. I will

Same here, Yoshi. I will always like the Pokemon games, nay-sayers be damned.

Diamond and Pearl were

Diamond and Pearl were alright, but Ruby and Sapphire were a bit of a disappointment. That's why I'm called Black Infernape and not Black Blaziken, though it has a nice ring to it. Anyway, do you think you could post the legendary dog theme? You know, the one played when you ran into Raikou, Entei, or Suicune. That was the best song in the game to me.

I agree with Mareo147, I'm

I agree with Mareo147, I'm not sure why but gold version, for some strange reason, was alot better to me than probably any other pokemon game I've played. And it's the weirdest thing, I don't know why... I actually take a few minutes to think about this once in a while.

I guess I kinda understand.

I guess I kinda understand. I have crystal version, and it was awseome, but it doesn't mean I don't like the other games. Besides, if you try going back and playing the old games now, it's just not as fun as it used to be. none the less, this is an excellent tab.

Thank you kob kun kub

Thank you kob kun kub

Ah. Nostalgia.

5

Ah. Nostalgia.

ive owned a pokemon game

ive owned a pokemon game from every series, i cant seem to get over them. but after the elite 4, walking around begins to get a bit boring.

if this tab sounds as good as theh midi, i would consider that a job well done. bravo to you zelos.

nice tab... very well

nice tab... very well done... sounds incredible, 'specially comming from a gameboy game.... personally my favorite was fire red :P

Nice tab

nice tab
But it has to be said, red version was the best then blue then yellow then silver then gold. i dont class the new ones as pokemon they are just lies