Login or Register to remove this ad. | Advertise Here

Tal Tal Heights (Legend of Zelda: Link's Awakening) Guitar Tab

Submitted: May 29, 2008 by archard (Last updated: Oct 16, 2009)

5
Average: 5 (6 votes)
Download | Listen
Game: Legend of Zelda: Link's Awakening
Composer(s): Kazumi Totaka, Minako Hamano, Kozue Ishikawa
Style: 2 or more instruments, Transcription
Series: Legend of Zelda

AutoScroll: Slow | Medium | Fast
Tal Tal Heights
Legend of Zelda: Link's Awakening
Composed by Koji Kondo
Tabbed by Richard Schaefer (archard)
5/29/08



                                     Q    Q.     E  S S S S  
E||-------|-------|-------|-------|-------------------------|
B||-------|-------|-------|-------|---------------------0-1-|
G||-------|-------|-------|-------|--0-----------0--0-2-----|
D||-------|-------|-------|-------|-------0-----------------|
A||-------|-------|-------|-------|-------------------------|
E||-------|-------|-------|-------|-------------------------|


  W                   Q    Q.     E  S  S S S     W                 
-------------------|--3-------------------7-8-|--10----------------|
--3----------------|-------3------8--8-10-----|--------------------|
-------------------|--------------------------|--------------------|
-------------------|--------------------------|--------------------|
-------------------|--------------------------|--------------------|
-------------------|--------------------------|--------------------|


                                         |----3----|                           
  E.  S Q.     E  S S S S    Q.     S  S Q    Q    Q       E.  S H.            
--------------------------|-----------------------------|---------------------|
----------------------0-1-|--3--------------------------|--------8------------|
--0------------0--0-2-----|---------9-10-9----7----5----|--7---0--------------|
------0-0-----------------|-----------------------------|---------------------|
--------------------------|-----------------------------|---------------------|
--------------------------|-----------------------------|---------------------|


  Q.     E  E  E  E  E      E   S  S  Q.      E   E   E   
------------6--5--6--8--|--10-----10-15------10----------|
--L---------------------|------------------------13--11--|
---------7--------------|------12------------------------|
------------------------|--------------------------------|
------------------------|--------------------------------|
------------------------|--------------------------------|


   E   S  S  Q.      E   E   E      E.  S Q.     S S E  E     W                 
------------13------------------|--------------------------|-------------------|
--13-----13---------13--11--10--|--11----------------------|--3----------------|
------10------------------------|-------7-7------7-5-3--5--|-------------------|
--------------------------------|--------------------------|-------------------|
--------------------------------|--------------------------|-------------------|
--------------------------------|--------------------------|-------------------|


  E.  S Q.     E  S S S S    Q.     S S E  Q    E     E.  S Q.     E  E  E   
--------------------------|------------------------|------------------3-----|
------------------------1-|--3------4-6-4--3----1--|--------3---------------|
--0------------0--0-2-3---|------------------------|--3---0--------3-----3--|
------0-0-----------------|------------------------|------------------------|
--------------------------|------------------------|------------------------|
--------------------------|------------------------|------------------------|


  Q.     E  E  E  E  E      E  S  S  Q.      Q     E   
--6------5-----5--6--8--|--10--8-10-11------13----11--|
------------8-----------|-----------------------------|
------------------------|-----------------------------|
------------------------|-----------------------------|
------------------------|-----------------------------|
------------------------|-----------------------------|


   Q     E   E   E   E   E   E      W                   E   H.           E   
--10----------------------------|--------------------|-----15---------------|
--------10--11--13--11--10------|--------------------|----------------------|
----------------------------12--|--12----------------|----------------------|
--------------------------------|--------------------|----------------------|
--------------------------------|--------------------|----------------------|
--------------------------------|--------------------|----------------------|


-----||
-----||
-----||
-----||
-----||
-----||




Duration Legend
---------------
W - whole
H - half
Q - quarter
E - 8th
S - 16th
. - note dotted
|-n-|  - n-tuplets
L - tied note




Tal Tal Heights
Legend of Zelda: Link's Awakening
Composed by Koji Kondo
Tabbed by Richard Schaefer (archard)
5/29/08



     E  S S E  S S E  S S E  S S    E  S S E  S S E  S S E  S S  
E||------------------------------|------------------------------|
B||------------------------------|------------------------------|
G||--7--7-7-7--7-7-7--7-7-7--7-7-|--9--9-9-9--9-9-9--9-9-9--9-9-|
D||--7--7-7-7--7-7-7--7-7-7--7-7-|--9--9-9-9--9-9-9--9-9-9--9-9-|
A||--5--5-5-5--5-5-5--5-5-5--5-5-|--7--7-7-7--7-7-7--7-7-7--7-7-|
E||------------------------------|------------------------------|


   E   S  S  E   S  S  E   S  S  E   S  S    E  S S E  S S E  S S E  S S  
------------------------------------------|------------------------------|
------------------------------------------|------------------------------|
--10--10-10-10--10-10-10--10-10-10--10-10-|--9--9-9-9--9-9-9--9-9-9--9-9-|
--10--10-10-10--10-10-10--10-10-10--10-10-|--9--9-9-9--9-9-9--9-9-9--9-9-|
---8---8--8--8---8--8--8---8--8--8---8--8-|--7--7-7-7--7-7-7--7-7-7--7-7-|
------------------------------------------|------------------------------|


  E  S S E  S S E  S S E  S S    E  S S E  S S E  S S E  S S  
------------------------------|------------------------------|
------------------------------|------------------------------|
--7--7-7-7--7-7-7--7-7-7--7-7-|--9--9-9-9--9-9-9--9-9-9--9-9-|
--7--7-7-7--7-7-7--7-7-7--7-7-|--9--9-9-9--9-9-9--9-9-9--9-9-|
--5--5-5-5--5-5-5--5-5-5--5-5-|--7--7-7-7--7-7-7--7-7-7--7-7-|
------------------------------|------------------------------|


   E   S  S  E   S  S  E   S  S  E   S  S    E  S S E  S S E  S S E  S S  
------------------------------------------|------------------------------|
------------------------------------------|------------------------------|
--10--10-10-10--10-10-10--10-10-10--10-10-|--9--9-9-9--9-9-9--9-9-9--9-9-|
--10--10-10-10--10-10-10--10-10-10--10-10-|--9--9-9-9--9-9-9--9-9-9--9-9-|
---8---8--8--8---8--8--8---8--8--8---8--8-|--7--7-7-7--7-7-7--7-7-7--7-7-|
------------------------------------------|------------------------------|


  E  S S E  S S E  S S E  S S    E  S S E  S S E  S S E  S S  
------------------------------|------------------------------|
------------------------------|------------------------------|
--7--7-7-7--7-7-7--7-7-7--7-7-|--9--9-9-9--9-9-9--9-9-9--9-9-|
--7--7-7-7--7-7-7--7-7-7--7-7-|--9--9-9-9--9-9-9--9-9-9--9-9-|
--5--5-5-5--5-5-5--5-5-5--5-5-|--7--7-7-7--7-7-7--7-7-7--7-7-|
------------------------------|------------------------------|


   E   S  S  E   S  S  E   S  S  E   S  S    E  S S E  S S E  S S E  S S  
------------------------------------------|------------------------------|
------------------------------------------|------------------------------|
--10--10-10-10--10-10-10--10-10-10--10-10-|--9--9-9-9--9-9-9--9-9-9--9-9-|
--10--10-10-10--10-10-10--10-10-10--10-10-|--9--9-9-9--9-9-9--9-9-9--9-9-|
---8---8--8--8---8--8--8---8--8--8---8--8-|--7--7-7-7--7-7-7--7-7-7--7-7-|
------------------------------------------|------------------------------|


  E  S S E  S S E  S S E  S S    E  S S E  S S E  S S E  S S  
------------------------------|------------------------------|
------------------------------|------------------------------|
--7--7-7-7--7-7-7--7-7-7--7-7-|--5--5-5-5--5-5-5--5-5-5--5-5-|
--7--7-7-7--7-7-7--7-7-7--7-7-|--5--5-5-5--5-5-5--5-5-5--5-5-|
--5--5-5-5--5-5-5--5-5-5--5-5-|--3--3-3-3--3-3-3--3-3-3--3-3-|
------------------------------|------------------------------|


  E  S S E  S S E  S S E  S S     E   S  S  E   S  S  E   S  S Q     
------------------------------|-------------------------------------|
------------------------------|-------------------------------------|
--7--7-7-7--7-7-9--9-9-9--9-9-|--11--11-11-11--11-11-11--11-11------|
--7--7-7-7--7-7-9--9-9-9--9-9-|--11--11-11-11--11-11-11--11-11------|
--5--5-5-5--5-5-7--7-7-7--7-7-|---9---9--9--9---9--9--9---9--9------|
------------------------------|-------------------------------------|


  E  S S E  S S E  S S E  S S    E  S S E  S S E  S S E  S S  
------------------------------|------------------------------|
------------------------------|------------------------------|
--7--7-7-7--7-7-7--7-7-7--7-7-|--8--8-8-8--8-8-8--8-8-8--8-8-|
--7--7-7-7--7-7-7--7-7-7--7-7-|--8--8-8-8--8-8-8--8-8-8--8-8-|
--5--5-5-5--5-5-5--5-5-5--5-5-|--6--6-6-6--6-6-6--6-6-6--6-6-|
------------------------------|------------------------------|


  E  S S E  S S E  S S E  S S    E  S S E  S S E  S S E  S S  
------------------------------|------------------------------|
------------------------------|------------------------------|
--7--7-7-7--7-7-7--7-7-7--7-7-|--7--7-7-7--7-7-7--7-7-7--7-7-|
--7--7-7-7--7-7-7--7-7-7--7-7-|--7--7-7-7--7-7-7--7-7-7--7-7-|
--5--5-5-5--5-5-5--5-5-5--5-5-|--5--5-5-5--5-5-5--5-5-5--5-5-|
------------------------------|------------------------------|


  E  S S E  S S E  S S E  S S             H        H         
------------------------------|-------|--10--------8--------|
------------------------------|-------|---------------------|
--8--8-8-8--8-8-8--8-8-8--8-8-|-------|---------------------|
--8--8-8-8--8-8-8--8-8-8--8-8-|-------|---------------------|
--6--6-6-6--6-6-6--6-6-6--6-6-|-------|---------------------|
------------------------------|-------|---------------------|


  H        H                      
--6--------8--------|-----------||
--------------------|-----------||
--------------------|-----------||
--------------------|-----------||
--------------------|-----------||
--------------------|-----------||




Duration Legend
---------------
W - whole
H - half
Q - quarter
E - 8th
S - 16th
. - note dotted
|-n-|  - n-tuplets
L - tied note

6 comments on Tal Tal Heights

Awesome dude, =D. One of my

5

Awesome dude, =D. One of my favorite Zelda songs from this game.

-Blur

Amazing... Simply amazing.

Amazing... Simply amazing.

Thank you! I've been wanting

Thank you! I've been wanting this forever!

Yes. Great job!! Thank you

Yes. Great job!! Thank you for doing my request!!

I forgot the rating! |D

5

I forgot the rating! |D

OH YEAH. This is awesome.

5

OH YEAH. This is awesome.