Login or Register to remove this ad. | Advertise Here

Mission of Mana (Sword of Mana) Guitar Tab

Submitted: Sep 30, 2007 by ronito (Last updated: Sep 09, 2009)

5
Average: 5 (3 votes)
Download | Listen
Game: Sword of Mana
Composer(s): Kenji Ito
Style: Arrangement, Fingerstyle
Series: Mana

AutoScroll: Slow | Medium | Fast
Acoustic Guitar
     E  E  E  E  E  E  E  E     E  E  E  E  E  E  E  E
E||--------------------------|--------------------------|
B||-----2--0--2-----2-----2--|-----2--0--2-----2-----2--|
G||--------------2-----1-----|--------------2-----1-----|
D||--4-----------------------|--4-----------------------|
A||--------------------------|--------------------------|
E||--------------------------|--------------------------|

  E  E  E  E  E  S S S S S S    E  E  E  E  E  S S S S S S
--5--------------4-5-7-5-4-5-|-----------------4-5-7-5-4-5-|
--2--2--0--2-----------------|--2--0-----0--L--------------|
--2-----------2--------------|--------2--------------------|
--4-----------4------0-------|--2------------------4-------|
-----------------------------|--------------0--------------|
-----------------------------|-----------------------------|

  E  E  E  E  E  E  E  E     E  E  E  E  Q    S S S S
--4-----2-----------0-----|-------------------2-4-5---|
-----------------------3--|--2----------------------7-|
-----2--1--2-----2--1--2--|-----2-----2---------------|
--0-----------4-----------|--------4------------------|
--------------------------|--4-----------4------------|
--------------------------|---------------------------|

   E  E  E  E  Q    S S S S    E  E  E  E  Q    S S S S
--10--------5--4----4-5-7-4-|--9--------4--2----2-4-5-2-|
---7------------------------|---------------------------|
---7------------------------|-----------1---------------|
------7-----7---------------|-----6--------0------------|
---------9------------------|--0-----7------------------|
---7-----------0------------|---------------------------|

  Q    E  E  E  E  E  E     E  E  E  E  E  E  E  E
--7----5-----4--2--1--2--|--4-----------------------|
-------------------------|--2-----------------------|
-------------------1-----|-----1-----1-----------1--|
--0-------0--1-----------|--------4-----3--3--4-----|
-------4-----------------|--------------------------|
-------------------------|--------------------------|

  E  E  E  E  E  S S S S S S    E  E  E  E  E  S S S S S S
--5--------------4-5-7-5-4-5-|-----------------4-5-7-5-4-5-|
--2--2--0--2-----------------|--2--0-----0--L--------------|
--2-----------2--------------|--------2--------------------|
--4-----------4------0-------|--2------------------4-------|
-----------------------------|--------------0--------------|
-----------------------------|-----------------------------|

  E  E  E  E  E  E  E  E     E  E  E  E  Q    S S S S
--4-----2-----------0-----|-------------------2-4-5-2-|
-----------------------3--|--2------------------------|
-----2--1--2-----2--1--2--|-----2-----2---------------|
--0-----------4-----------|--------4------------------|
--------------------------|--4-----------4------------|
--------------------------|---------------------------|

   E   E  E  E  Q    S S S S     E  E  E  E  Q    S S S S
--10---------5--4----4-5-7-4-|---9--------4--2----2-4-5-2-|
---7------0------------------|------0---------------------|
---7---------2--1------------|---9--------1---------------|
------11---------------------|--11-----7-----4------------|
-----------------------------|---0------------------------|
---7-------------------------|----------------------------|

  Q    E  E  E  E  E  E     E  E  E  E  H           E  E  E  E  E  S S S S S S
--7----5-----4--2--1--2--|--4--------------------|-----------------------------|
-------------------------|-----------------------|--1-----------L--0-1-3-1-0-1-|
-------------------------|-----1-----1-----------|-----------------------------|
-------------------------|--------4--------------|-----2--0--2---------3-------|
--2----0-----------------|--4-----------4--------|--0-----------0--------------|
----------4--0-----------|-----------------------|-----------------------------|

  E  E  E  E  E  S S S S S S    E  E  E  E  E  E  E  E
-----------------------------|--------------------------|
-----------------0-1-3-1-0-1-|--0-----------------------|
-----------------------------|--------2-----------0-----|
--2--0-----0--L------3-------|-----------------------3--|
--------3-----2--------------|-----3--2--3--0--3--2--3--|
--3--------------------------|--1-----------------------|

  E  E  E  E  Q    S S S S    E  E  E  E  Q    S S S S
---------------------------|--1------------------------|
---------------------0-1---|-----------1--0----0-1-3-0-|
-------------------2-----2-|--2------------------------|
--2------------------------|--3--2--0------------------|
-----2--0--2--2------------|-----------3--2------------|
--0-----------0------------|---------------------------|

  E  E  E  E  Q    S S S S    Q    E  E  E  E  E  E     E  E  E  E  H
--0------------------------|-------------------------|-----------------------|
-----------0---------0-1---|--3----1-----0-----------|--0--0-----0-----------|
--0-----------2----2-----2-|----------------2--1--2--|--------2-----1--------|
--2--0---------------------|-------------------------|--2-----------2--------|
--------3--2--0------------|-------------------2-----|-----------------------|
---------------------------|--1----0--1--2-----------|-----------------------|

  E  E  E  E  E  E  E  E     E
-----0-----0-----0-----0--|-----||
--------3-----1-----0-----|--2--||
--2-----------------------|--2--||
--------------------------|-----||
--------------------------|-----||
--------------------------|-----||

Duration Legend
---------------
W - whole
H - half
Q - quarter
E - 8th
S - 16th
T - 32nd
X - 64th
. - note dotted
|-n-|  - n-tuplets