Login or Register to remove this ad. | Advertise Here

Twilight Town Battle (Kingdom Hearts: Chain of Memories) Guitar Tab

Submitted: Oct 21, 2007 by Yamato (Last updated: Jun 07, 2008)

5
Average: 5 (1 vote)
Download | Listen
Game: Kingdom Hearts: Chain of Memories
Composer(s): Yoko Shimomura
Style: 2 or more instruments, Transcription
Series: Kingdom Hearts

AutoScroll: Slow | Medium | Fast
                      Kingdom Hearts : Chain Of Memories                        



     H         S E.   S S  S S    E   S S  S S  S S  S S  S S  T  S  T  T S.  
E||-----------10-----10---12---|-----13---12---10---17---15---13-15-13-12----|
B||----------------------------|---------------------------------------------|
G||----------------------------|---------------------------------------------|
D||----------------------------|---------------------------------------------|
A||----------------------------|---------------------------------------------|
E||----------------------------|---------------------------------------------|


  E   S S  S S  S S  S S  S.T  S E.     W                 
-----13---12------------------10-----|-------------------|
---------------13---11---13----------|-------------------|
-------------------------------------|-------------------|
-------------------------------------|-------------------|
-------------------------------------|-------------------|
-------------------------------------|-------------------|


  H         S E.   S S  S S    E   S S  S S  S S  S S  S S  T  S  T  T S.  
-----------10-----10---12---|-----13---12---10---17---15---13-15-13-12----|
----------------------------|---------------------------------------------|
----------------------------|---------------------------------------------|
----------------------------|---------------------------------------------|
----------------------------|---------------------------------------------|
----------------------------|---------------------------------------------|


  E   S S  S S  S S  S S  S.T  S E.     W                 
-----13---12------------------10-----|-------------------|
---------------13---11---13----------|-------------------|
-------------------------------------|-------------------|
-------------------------------------|-------------------|
-------------------------------------|-------------------|
-------------------------------------|-------------------|


  H         S Q.     S     S Q.     S  S E.   S E.     W                 
-----------12----------|--13-----------------10-----|-------------------|
-----------------------|--------------13------------|-------------------|
-----------------------|----------------------------|-------------------|
-----------------------|----------------------------|-------------------|
-----------------------|----------------------------|-------------------|
-----------------------|----------------------------|-------------------|


  W                   H         S Q.     S     S Q.     S  S E.   S E.   
-------------------|-----------12----------|--13-----------------10-----|
-------------------|-----------------------|--------------13------------|
-------------------|-----------------------|----------------------------|
-------------------|-----------------------|----------------------------|
-------------------|-----------------------|----------------------------|
-------------------|-----------------------|----------------------------|


  W                   W                   H         S E.   S S  S S  
-------------------|-------------------|-----------10-----10---12---|
-------------------|-------------------|----------------------------|
-------------------|-------------------|----------------------------|
-------------------|-------------------|----------------------------|
-------------------|-------------------|----------------------------|
-------------------|-------------------|----------------------------|


  E   S S  S S  S S  S S  S S  T  S  T  T S.  
-----13---12---10---17---15---13-15-13-12----|
---------------------------------------------|
---------------------------------------------|
---------------------------------------------|
---------------------------------------------|
---------------------------------------------|


  E   S S  S S  S S  S S  S.T  S E.     W                 
-----13---12------------------10-----|-------------------|
---------------13---11---13----------|-------------------|
-------------------------------------|-------------------|
-------------------------------------|-------------------|
-------------------------------------|-------------------|
-------------------------------------|-------------------|


  H         S E.   S S  S S    E   S S  S S  S S  S S  S S  T  S  T  T S.  
-----------10-----10---12---|-----13---12---10---17---15---13-15-13-12----|
----------------------------|---------------------------------------------|
----------------------------|---------------------------------------------|
----------------------------|---------------------------------------------|
----------------------------|---------------------------------------------|
----------------------------|---------------------------------------------|


  E   S S  S S  S S  S S  S.T  S E.     W                   W                 
-----13---12------------------10-----|-------------------|-------------------|
---------------13---11---13----------|-------------------|-------------------|
-------------------------------------|-------------------|-------------------|
-------------------------------------|-------------------|-------------------|
-------------------------------------|-------------------|-------------------|
-------------------------------------|-------------------|-------------------|


  W                   W                   W                   W                 
-------------------|-------------------|-------------------|-------------------|
-------------------|-------------------|-------------------|-------------------|
-------------------|-------------------|-------------------|-------------------|
-------------------|-------------------|-------------------|-------------------|
-------------------|-------------------|-------------------|-------------------|
-------------------|-------------------|-------------------|-------------------|


  W                   W                   W                 
-------------------|-------------------|-------------------|
-------------------|-------------------|-------------------|
-------------------|-------------------|-------------------|
-------------------|-------------------|-------------------|
-------------------|-------------------|-------------------|
-------------------|-------------------|-------------------|


  H        E   S S  S S  S S    E   S S  S S  S E.   S S  S S  S S  
--------------10---10---12---|-----13---12---10-----17---15---13---|
-----------------------------|-------------------------------------|
-----------------------------|-------------------------------------|
-----------------------------|-------------------------------------|
-----------------------------|-------------------------------------|
-----------------------------|-------------------------------------|


  E   S S  S S  S E.   T S.  T S.  T S.    E   S S  T  S  T  T S.  T Q.     S.  
-----12---13---12-----10----10----12----|-----13---12-13-12-------10-----------|
----------------------------------------|-------------------13-----------------|
----------------------------------------|--------------------------------------|
----------------------------------------|--------------------------------------|
----------------------------------------|--------------------------------------|
----------------------------------------|--------------------------------------|


  H         S E.   S S  S S    E   S S  S S  S S  S S  S S  T  S  T  T S.  
-----------10-----10---12---|-----13---12---10---17---15---13-15-13-12----|
----------------------------|---------------------------------------------|
----------------------------|---------------------------------------------|
----------------------------|---------------------------------------------|
----------------------------|---------------------------------------------|
----------------------------|---------------------------------------------|


  E   S S  S S  S S  S S  S.T  S E.     W                 
-----13---12------------------10-----|-------------------|
---------------13---11---13----------|-------------------|
-------------------------------------|-------------------|
-------------------------------------|-------------------|
-------------------------------------|-------------------|
-------------------------------------|-------------------|


  H         S E.   S S  S S    E   S S  S S  S S  S S  S S  T  S  T  T S.  
-----------10-----10---12---|-----13---12---10---17---15---13-15-13-12----|
----------------------------|---------------------------------------------|
----------------------------|---------------------------------------------|
----------------------------|---------------------------------------------|
----------------------------|---------------------------------------------|
----------------------------|---------------------------------------------|


  E   S S  S S  S S  S S  S.T  S E.     W                 
-----13---12------------------10-----|-------------------|
---------------13---11---13----------|-------------------|
-------------------------------------|-------------------|
-------------------------------------|-------------------|
-------------------------------------|-------------------|
-------------------------------------|-------------------|


  H         S Q.     S     S Q.     S  S E.   S E.     W                 
-----------12----------|--13-----------------10-----|-------------------|
-----------------------|--------------13------------|-------------------|
-----------------------|----------------------------|-------------------|
-----------------------|----------------------------|-------------------|
-----------------------|----------------------------|-------------------|
-----------------------|----------------------------|-------------------|


  W                   H         S Q.     S     S Q.     S  S E.   S E.   
-------------------|-----------12----------|--13-----------------10-----|
-------------------|-----------------------|--------------13------------|
-------------------|-----------------------|----------------------------|
-------------------|-----------------------|----------------------------|
-------------------|-----------------------|----------------------------|
-------------------|-----------------------|----------------------------|


  W                   W                   H         S E.   S S  S S  
-------------------|-------------------|-----------10-----10---12---|
-------------------|-------------------|----------------------------|
-------------------|-------------------|----------------------------|
-------------------|-------------------|----------------------------|
-------------------|-------------------|----------------------------|
-------------------|-------------------|----------------------------|


  E   S S  S S  S S  S S  S S  T  S  T  T S.  
-----13---12---10---17---15---13-15-13-12----|
---------------------------------------------|
---------------------------------------------|
---------------------------------------------|
---------------------------------------------|
---------------------------------------------|


  E   S S  S S  S S  S S  S.T  S E.     W                 
-----13---12------------------10-----|-------------------|
---------------13---11---13----------|-------------------|
-------------------------------------|-------------------|
-------------------------------------|-------------------|
-------------------------------------|-------------------|
-------------------------------------|-------------------|


  H         S E.   S S  S S    E   S S  S S  S S  S S  S S  T  S  T  T S.  
-----------10-----10---12---|-----13---12---10---17---15---13-15-13-12----|
----------------------------|---------------------------------------------|
----------------------------|---------------------------------------------|
----------------------------|---------------------------------------------|
----------------------------|---------------------------------------------|
----------------------------|---------------------------------------------|


  E   S S  S S  S S  S S  S.T  S E.     W                   W                 
-----13---12------------------10-----|-------------------|-------------------|
---------------13---11---13----------|-------------------|-------------------|
-------------------------------------|-------------------|-------------------|
-------------------------------------|-------------------|-------------------|
-------------------------------------|-------------------|-------------------|
-------------------------------------|-------------------|-------------------|


  W                   W                   W                   W                 
-------------------|-------------------|-------------------|-------------------|
-------------------|-------------------|-------------------|-------------------|
-------------------|-------------------|-------------------|-------------------|
-------------------|-------------------|-------------------|-------------------|
-------------------|-------------------|-------------------|-------------------|
-------------------|-------------------|-------------------|-------------------|


  W                   W                   W                 
-------------------|-------------------|-------------------|
-------------------|-------------------|-------------------|
-------------------|-------------------|-------------------|
-------------------|-------------------|-------------------|
-------------------|-------------------|-------------------|
-------------------|-------------------|-------------------|


  H        E   S S  S S  S S    E   S S  S S  S E.   S S  S S  S S  
--------------10---10---12---|-----13---12---10-----17---15---13---|
-----------------------------|-------------------------------------|
-----------------------------|-------------------------------------|
-----------------------------|-------------------------------------|
-----------------------------|-------------------------------------|
-----------------------------|-------------------------------------|


  E   S S  S S  S E.   T S.  T S.  T S.    E   S S  T  S  T  T S.  T Q.     S.  
-----12---13---12-----10----10----12----|-----13---12-13-12-------10-----------|
----------------------------------------|-------------------13-----------------|
----------------------------------------|--------------------------------------|
----------------------------------------|--------------------------------------|
----------------------------------------|--------------------------------------|
----------------------------------------|--------------------------------------|


  H         S E.   S S  S S    E   S S  S S  S S  S S  S S  T  S  T  T S.  
-----------10-----10---12---|-----13---12---10---17---15---13-15-13-12----|
----------------------------|---------------------------------------------|
----------------------------|---------------------------------------------|
----------------------------|---------------------------------------------|
----------------------------|---------------------------------------------|
----------------------------|---------------------------------------------|


  E   S S  S S  S S  S S  S.T  S E.     W                 
-----13---12------------------10-----|-------------------|
---------------13---11---13----------|-------------------|
-------------------------------------|-------------------|
-------------------------------------|-------------------|
-------------------------------------|-------------------|
-------------------------------------|-------------------|


  H         S E.   S S  S S    E   S S  S S  S S  S S  S S  T  S  T  T S.  
-----------10-----10---12---|-----13---12---10---17---15---13-15-13-12----|
----------------------------|---------------------------------------------|
----------------------------|---------------------------------------------|
----------------------------|---------------------------------------------|
----------------------------|---------------------------------------------|
----------------------------|---------------------------------------------|


  E   S S  S S  S S  S S  S.T  S E  S    W                                      
-----13---12------------------10------|-------------------|-------------------||
---------------13---11---13-----------|-------------------|-------------------||
--------------------------------------|-------------------|-------------------||
--------------------------------------|-------------------|-------------------||
--------------------------------------|-------------------|-------------------||
--------------------------------------|-------------------|-------------------||




Duration Legend
---------------
W - whole
H - half
Q - quarter
E - 8th
S - 16th
T - 32nd
X - 64th
. - note dotted
|-n-|  - n-tuplets

Guitar 2

                      Kingdom Hearts : Chain Of Memories                        



     H        S S S S S S S S    S S S S S S S S S S S S S S S S  
E||---------------------------|----------------------------------|
B||---------------3-------3---|------3-------3-------3-------3---|
G||---------------3-------3---|------3-------3-------3-------3---|
D||---------------5-------5---|------5-------5-------5-------5---|
A||---------------------------|----------------------------------|
E||-----------3-------3-------|--3-------3-------3-------3-------|


  S S S S S S S S S S S S S S S S    S S S S S S S S S S S S S S S S  
----------------------------------|----------------------------------|
------3-------3-------3-------3---|------3-------3-------3-------3---|
------3-------3-------3-------3---|------3-------3-------3-------3---|
------5-------5-------5-------5---|------5-------5-------5-------5---|
----------------------------------|----------------------------------|
--3-------3-------3-------3-------|--3-------3-------3-------3-------|


  S S S S S S S S S S S S S S S S    S S S S S S S S S S S S S S S S  
----------------------------------|----------------------------------|
------3-------3-------3-------3---|------3-------3-------3-------3---|
------3-------3-------3-------3---|------3-------3-------3-------3---|
------5-------5-------5-------5---|------5-------5-------5-------5---|
----------------------------------|----------------------------------|
--3-------3-------3-------3-------|--3-------3-------3-------3-------|


  S S S S S S S S S S S S S S S S    S S S S S S S S S S S S S S S S  
----------------------------------|----------------------------------|
------3-------3-------3-------3---|------3-------3-------3-------3---|
------3-------3-------3-------3---|------3-------3-------3-------3---|
------5-------5-------5-------5---|------5-------5-------5-------5---|
----------------------------------|----------------------------------|
--3-------3-------3-------3-------|--3-------3-------3-------3-------|


  S S S S S S S S S S S S S S S S    S S S S S S S S S S S S S S S S  
----------------------------------|----------------------------------|
------3-------3-------3-------3---|------3-------3-------3-------3---|
------3-------3-------3-------3---|------3-------3-------3-------3---|
------5-------5-------5-------5---|------5-------5-------5-------5---|
----------------------------------|----------------------------------|
--3-------3-------3-------3-------|--3-------3-------3-------3-------|


  S S S S S S S S S S S S S S S S    S S S S S S S S S S S S S S S S  
----------------------------------|----------------------------------|
------3-------3-------3-------3---|------3-------3-------3-------3---|
------3-------3-------3-------3---|------3-------3-------3-------3---|
------5-------5-------5-------5---|------5-------5-------5-------5---|
----------------------------------|----------------------------------|
--3-------3-------3-------3-------|--3-------3-------3-------3-------|


  S S S S S S S S S S S S S S S S    S S S S S S S S S S S S S S S S  
----------------------------------|----------------------------------|
------3-------3-------3-------3---|------3-------3-------3-------3---|
------3-------3-------3-------3---|------3-------3-------3-------3---|
------5-------5-------5-------5---|------5-------5-------5-------5---|
----------------------------------|----------------------------------|
--3-------3-------3-------3-------|--3-------3-------3-------3-------|


  S S S S S S S S S S S S S S S S    S S S S S S S S S S S S S S S S  
----------------------------------|----------------------------------|
------3-------3-------3-------3---|------3-------3-------3-------3---|
------3-------3-------3-------3---|------3-------3-------3-------3---|
------5-------5-------5-------5---|------5-------5-------5-------5---|
----------------------------------|----------------------------------|
--3-------3-------3-------3-------|--3-------3-------3-------3-------|


  S S S S S S S S S S S S S S S S    S S S S S S S S S S S S S S S S  
----------------------------------|----------------------------------|
------3-------3-------3-------3---|------3-------3-------3-------3---|
------3-------3-------3-------3---|------3-------3-------3-------3---|
------5-------5-------5-------5---|------5-------5-------5-------5---|
----------------------------------|----------------------------------|
--3-------3-------3-------3-------|--3-------3-------3-------3-------|


  S S S S S S S S S S S S S S S S    S S S S S S S S S S S S S S S S  
----------------------------------|----------------------------------|
------3-------3-------3-------3---|------3-------3-------3-------3---|
------3-------3-------3-------3---|------3-------3-------3-------3---|
------5-------5-------5-------5---|------5-------5-------5-------5---|
----------------------------------|----------------------------------|
--3-------3-------3-------3-------|--3-------3-------3-------3-------|


  S S S S S S S S S S S S S S S S    S S S S S S S S S S S S S S S S  
----------------------------------|----------------------------------|
------3-------3-------3-------3---|------3-------3-------3-------3---|
------3-------3-------3-------3---|------3-------3-------3-------3---|
------5-------5-------5-------5---|------5-------5-------5-------5---|
----------------------------------|----------------------------------|
--3-------3-------3-------3-------|--3-------3-------3-------3-------|


  S S S S S S S S S S S S S S S S    S S S S S S S S S S S S S S S S  
----------------------------------|----------------------------------|
------3-------3-------3-------3---|------3-------3-------3-------3---|
------3-------3-------3-------3---|------3-------3-------3-------3---|
------5-------5-------5-------5---|------5-------5-------5-------5---|
----------------------------------|----------------------------------|
--3-------3-------3-------3-------|--3-------3-------3-------3-------|


  S S S S S S S S S S S S S S S S    S S S S S S T S. S S S S S S S S  
----------------------------------|-----------------------------------|
------3-------3-------------------|-----------------------1-------1---|
------3-------3-------3-------0---|------0-------0--------2-------2---|
------5-------5-------5-------8---|------8-------8--------3-------3---|
----------------------6-------6---|------6-------6--------------------|
--3-------3-----------------------|-------------------1-------1-------|


  S S S S S S S S S S S S S S S S    S S S S S S S S S S S S S S S S  
----------------------------------|----------------------------------|
------1-------1-------------------|----------------------------------|
------2-------2-------0-------0---|------0-------0-------0-------0---|
------3-------3-------1-------1---|------1-------1-------1-------1---|
----------------------3-------3---|------3-------3-------3-------3---|
--1-------1-----------------------|----------------------------------|


  S S S S S S S S S S S S S S S S    S S S S S S S S S S S S S S S S  
----------------------------------|----------------------------------|
----------------------------------|----------------------1-------1---|
------0-------0-------0-------0---|------0-------0-------2-------2---|
------1-------1-------8-------8---|------8-------8-------3-------3---|
------3-------3-------6-------6---|------6-------6-------------------|
----------------------------------|------------------1-------1-------|


  S S S S S S S S S S S S S S S S    S S S S S S S S S S S S S S S S  
----------------------------------|----------------------------------|
------1-------1-------------------|----------------------------------|
------2-------2-------0-------0---|------0-------0-------0-------0---|
------3-------3-------1-------1---|------1-------1-------1-------1---|
----------------------3-------3---|------3-------3-------3-------3---|
--1-------1-----------------------|----------------------------------|


  S S S S S S S S S S S S S S S S    S S S S S S S S S S S S S S S S  
----------------------------------|----------------------------------|
----------------------3-------3---|------3-------3-------3-------3---|
------0-------0-------3-------3---|------3-------3-------3-------3---|
------1-------1-------5-------5---|------5-------5-------5-------5---|
------3-------3-------------------|----------------------------------|
------------------3-------3-------|--3-------3-------3-------3-------|


  S S S S S S S S S S S S S S S S    S S S S S S S S S S S S S S S S  
----------------------------------|----------------------------------|
------3-------3-------3-------3---|------3-------3-------3-------3---|
------3-------3-------3-------3---|------3-------3-------3-------3---|
------5-------5-------5-------5---|------5-------5-------5-------5---|
----------------------------------|----------------------------------|
--3-------3-------3-------3-------|--3-------3-------3-------3-------|


  S S S S S S S S S S S S S S S S    S S S S S S S S S S S S S S S S  
----------------------------------|----------------------------------|
------3-------3-------3-------3---|------3-------3-------3-------3---|
------3-------3-------3-------3---|------3-------3-------3-------3---|
------5-------5-------5-------5---|------5-------5-------5-------5---|
----------------------------------|----------------------------------|
--3-------3-------3-------3-------|--3-------3-------3-------3-------|


  S S S S S S S S S S S S S S S S    S S S S S S S S S S S S S S S S  
----------------------------------|----------------------------------|
------3-------3-------3-------3---|------3-------3-------3-------3---|
------3-------3-------3-------3---|------3-------3-------3-------3---|
------5-------5-------5-------5---|------5-------5-------5-------5---|
----------------------------------|----------------------------------|
--3-------3-------3-------3-------|--3-------3-------3-------3-------|


  S S S S S S S S S S S S S S S S    S S S S S S S S S S S S S S S S  
----------------------------------|----------------------------------|
------3-------3-------3-------3---|------3-------3-------3-------3---|
------3-------3-------3-------3---|------3-------3-------3-------3---|
------5-------5-------5-------5---|------5-------5-------5-------5---|
----------------------------------|----------------------------------|
--3-------3-------3-------3-------|--3-------3-------3-------3-------|


  S S S S S S S S S S S S S S S S    S S S S S S S S S S S S S S S S  
----------------------------------|----------------------------------|
------3-------3-------3-------3---|------3-------3-------3-------3---|
------3-------3-------3-------3---|------3-------3-------3-------3---|
------5-------5-------5-------5---|------5-------5-------5-------5---|
----------------------------------|----------------------------------|
--3-------3-------3-------3-------|--3-------3-------3-------3-------|


  S S S S S S S S S S S S S S S S    S S S S S S S S S S S S S S S S  
----------------------------------|----------------------------------|
------3-------3-------3-------3---|------3-------3-------3-------3---|
------3-------3-------3-------3---|------3-------3-------3-------3---|
------5-------5-------5-------5---|------5-------5-------5-------5---|
----------------------------------|----------------------------------|
--3-------3-------3-------3-------|--3-------3-------3-------3-------|


  S S S S S S S S S S S S S S S S    S S S S S S S S S S S S S S S S  
----------------------------------|----------------------------------|
------3-------3-------3-------3---|------3-------3-------3-------3---|
------3-------3-------3-------3---|------3-------3-------3-------3---|
------5-------5-------5-------5---|------5-------5-------5-------5---|
----------------------------------|----------------------------------|
--3-------3-------3-------3-------|--3-------3-------3-------3-------|


  S S S S S S S S S S S S S S S S    S S S S S S S S S S S S S S S S  
----------------------------------|----------------------------------|
------3-------3-------3-------3---|------3-------3-------3-------3---|
------3-------3-------3-------3---|------3-------3-------3-------3---|
------5-------5-------5-------5---|------5-------5-------5-------5---|
----------------------------------|----------------------------------|
--3-------3-------3-------3-------|--3-------3-------3-------3-------|


  S S S S S S S S S S S S S S S S    S S S S S S S S S S S S S S S S  
----------------------------------|----------------------------------|
------3-------3-------3-------3---|------3-------3-------3-------3---|
------3-------3-------3-------3---|------3-------3-------3-------3---|
------5-------5-------5-------5---|------5-------5-------5-------5---|
----------------------------------|----------------------------------|
--3-------3-------3-------3-------|--3-------3-------3-------3-------|


  S S S S S S S S S S S S S S S S    S S S S S S S S S S S S S S S S  
----------------------------------|----------------------------------|
------3-------3-------3-------3---|------3-------3-------3-------3---|
------3-------3-------3-------3---|------3-------3-------3-------3---|
------5-------5-------5-------5---|------5-------5-------5-------5---|
----------------------------------|----------------------------------|
--3-------3-------3-------3-------|--3-------3-------3-------3-------|


  S S S S S S S S S S S S S S S S    S S S S S S S S S S S S S S S S  
----------------------------------|----------------------------------|
------3-------3-------3-------3---|------3-------3-------3-------3---|
------3-------3-------3-------3---|------3-------3-------3-------3---|
------5-------5-------5-------5---|------5-------5-------5-------5---|
----------------------------------|----------------------------------|
--3-------3-------3-------3-------|--3-------3-------3-------3-------|


  S S S S S S S S S S S S S S S S    S S S S S S S S S S S S S S S S  
----------------------------------|----------------------------------|
------3-------3-------3-------3---|------3-------3-------3-------3---|
------3-------3-------3-------3---|------3-------3-------3-------3---|
------5-------5-------5-------5---|------5-------5-------5-------5---|
----------------------------------|----------------------------------|
--3-------3-------3-------3-------|--3-------3-------3-------3-------|


  S S S S S S S S S S S S S S S S    S S S S S S S S S S S S S S S S  
----------------------------------|----------------------------------|
------3-------3-------3-------3---|------3-------3-------3-------3---|
------3-------3-------3-------3---|------3-------3-------3-------3---|
------5-------5-------5-------5---|------5-------5-------5-------5---|
----------------------------------|----------------------------------|
--3-------3-------3-------3-------|--3-------3-------3-------3-------|


  S S S S S S S S S S S S S S S S    S S S S S S T S. S S S S S S S S  
----------------------------------|-----------------------------------|
------3-------3-------------------|-----------------------1-------1---|
------3-------3-------3-------0---|------0-------0--------2-------2---|
------5-------5-------5-------8---|------8-------8--------3-------3---|
----------------------6-------6---|------6-------6--------------------|
--3-------3-----------------------|-------------------1-------1-------|


  S S S S S S S S S S S S S S S S    S S S S S S S S S S S S S S S S  
----------------------------------|----------------------------------|
------1-------1-------------------|----------------------------------|
------2-------2-------0-------0---|------0-------0-------0-------0---|
------3-------3-------1-------1---|------1-------1-------1-------1---|
----------------------3-------3---|------3-------3-------3-------3---|
--1-------1-----------------------|----------------------------------|


  S S S S S S S S S S S S S S S S    S S S S S S S S S S S S S S S S  
----------------------------------|----------------------------------|
----------------------------------|----------------------1-------1---|
------0-------0-------0-------0---|------0-------0-------2-------2---|
------1-------1-------8-------8---|------8-------8-------3-------3---|
------3-------3-------6-------6---|------6-------6-------------------|
----------------------------------|------------------1-------1-------|


  S S S S S S S S S S S S S S S S    S S S S S S S S S S S S S S S S  
----------------------------------|----------------------------------|
------1-------1-------------------|----------------------------------|
------2-------2-------0-------0---|------0-------0-------0-------0---|
------3-------3-------1-------1---|------1-------1-------1-------1---|
----------------------3-------3---|------3-------3-------3-------3---|
--1-------1-----------------------|----------------------------------|


  S S S S S S S S S S S S S S S S    S S S S S S S S S S S S S S S S  
----------------------------------|----------------------------------|
----------------------3-------3---|------3-------3-------3-------3---|
------0-------0-------3-------3---|------3-------3-------3-------3---|
------1-------1-------5-------5---|------5-------5-------5-------5---|
------3-------3-------------------|----------------------------------|
------------------3-------3-------|--3-------3-------3-------3-------|


  S S S S S S S S S S S S S S S S    S S S S S S S S S S S S S S S S  
----------------------------------|----------------------------------|
------3-------3-------3-------3---|------3-------3-------3-------3---|
------3-------3-------3-------3---|------3-------3-------3-------3---|
------5-------5-------5-------5---|------5-------5-------5-------5---|
----------------------------------|----------------------------------|
--3-------3-------3-------3-------|--3-------3-------3-------3-------|


  S S S S S S S S S S S S S S S S    S S S S S S S S S S S S S S S S  
----------------------------------|----------------------------------|
------3-------3-------3-------3---|------3-------3-------3-------3---|
------3-------3-------3-------3---|------3-------3-------3-------3---|
------5-------5-------5-------5---|------5-------5-------5-------5---|
----------------------------------|----------------------------------|
--3-------3-------3-------3-------|--3-------3-------3-------3-------|


  S S S S S S S S S S S S S S S S    S S S S S S S S S S S S S S S S  
----------------------------------|----------------------------------|
------3-------3-------3-------3---|------3-------3-------3-------3---|
------3-------3-------3-------3---|------3-------3-------3-------3---|
------5-------5-------5-------5---|------5-------5-------5-------5---|
----------------------------------|----------------------------------|
--3-------3-------3-------3-------|--3-------3-------3-------3-------|


  S S S S S S S S S S S S S S S S    S S S S S S S S S S S S S S S S  
----------------------------------|----------------------------------|
------3-------3-------3-------3---|------3-------3-------3-------3---|
------3-------3-------3-------3---|------3-------3-------3-------3---|
------5-------5-------5-------5---|------5-------5-------5-------5---|
----------------------------------|----------------------------------|
--3-------3-------3-------3-------|--3-------3-------3-------3-------|


  S S S S S S S S S S S S S S S S    S S S S S S S S S S S S S S S S        
----------------------------------|----------------------------------|----||
------3-------3-------3-------3---|------3-------3-------3-------3---|----||
------3-------3-------3-------3---|------3-------3-------3-------3---|----||
------5-------5-------5-------5---|------5-------5-------5-------5---|----||
----------------------------------|----------------------------------|----||
--3-------3-------3-------3-------|--3-------3-------3-------3-------|----||




Duration Legend
---------------
W - whole
H - half
Q - quarter
E - 8th
S - 16th
T - 32nd
X - 64th
. - note dotted
|-n-|  - n-tuplets





                      Kingdom Hearts : Chain Of Memories                        



     W                   W                   W                 
E||-------------------|-------------------|-------------------|
B||-------------------|-------------------|-------------------|
G||-------------------|-------------------|-------------------|
D||-------------------|-------------------|-------------------|
A||-------------------|-------------------|-------------------|
E||-------------------|-------------------|-------------------|


  W                   W                   W                   W                 
-------------------|-------------------|-------------------|-------------------|
-------------------|-------------------|-------------------|-------------------|
-------------------|-------------------|-------------------|-------------------|
-------------------|-------------------|-------------------|-------------------|
-------------------|-------------------|-------------------|-------------------|
-------------------|-------------------|-------------------|-------------------|


  W                   W                   W                   W                 
-------------------|-------------------|-------------------|-------------------|
-------------------|-------------------|-------------------|-------------------|
-------------------|-------------------|-------------------|-------------------|
-------------------|-------------------|-------------------|-------------------|
-------------------|-------------------|-------------------|-------------------|
-------------------|-------------------|-------------------|-------------------|


  W                   W                   W                   W                 
-------------------|-------------------|-------------------|-------------------|
-------------------|-------------------|-------------------|-------------------|
-------------------|-------------------|-------------------|-------------------|
-------------------|-------------------|-------------------|-------------------|
-------------------|-------------------|-------------------|-------------------|
-------------------|-------------------|-------------------|-------------------|


  W                   W                   W                   W                 
-------------------|-------------------|-------------------|-------------------|
-------------------|-------------------|-------------------|-------------------|
-------------------|-------------------|-------------------|-------------------|
-------------------|-------------------|-------------------|-------------------|
-------------------|-------------------|-------------------|-------------------|
-------------------|-------------------|-------------------|-------------------|


  W                   W                   W                   W                 
-------------------|-------------------|-------------------|-------------------|
-------------------|-------------------|-------------------|-------------------|
-------------------|-------------------|-------------------|-------------------|
-------------------|-------------------|-------------------|-------------------|
-------------------|-------------------|-------------------|-------------------|
-------------------|-------------------|-------------------|-------------------|


  W                   H         S S  S  S  S S  S  T T  
-------------------|-----------10---11-10-10---15------|
-------------------|------------------------------15---|
-------------------|-----------------------------------|
-------------------|-----------------------------------|
-------------------|-----------------------------------|
-------------------|-----------------------------------|


   S S  S  T T  S S  S  T T  S S  S  T T  S S  S  T T  
--------------------15------------------------13------|
--15---16-15---15------15---13---15-13---13------13---|
------------------------------------------------------|
------------------------------------------------------|
------------------------------------------------------|
------------------------------------------------------|


   S S  S T T S S  S  T T  S S  S  T T  S S  S  T T  
-------10-8---8---13------10---11-10---10---15------|
--13-----------------13------------------------15---|
----------------------------------------------------|
----------------------------------------------------|
----------------------------------------------------|
----------------------------------------------------|


   S S  S  T T  S S  S  T T  S S  S  T T  S S  S  S  
--------------------15------------------------18----|
--15---16-15---15------15---15---16-15---15------15-|
----------------------------------------------------|
----------------------------------------------------|
----------------------------------------------------|
----------------------------------------------------|


   S S  S  T T  S S  S  S  S S  S  T T  S S  S  T T  
--------------------15----------------------15------|
--15---16-15---15------15-15---16-15---15------15---|
----------------------------------------------------|
----------------------------------------------------|
----------------------------------------------------|
----------------------------------------------------|


   S S  T T  S  S S  S  S  S S  T T  T T  S S  S  T T  
--------------------15------------------------13------|
--15---16---15-15------15-13---15---13---13------13---|
------------------------------------------------------|
------------------------------------------------------|
------------------------------------------------------|
------------------------------------------------------|


   S S  S T T S S  S  S  S S  S  T T  S S  S  T T  
-------10-8---8---13----10---11-10---10---15------|
--13-----------------13----------------------15---|
--------------------------------------------------|
--------------------------------------------------|
--------------------------------------------------|
--------------------------------------------------|


   S S  S  T T  S S  S  T T  T S.  S  T T  T S.  S  T T  
--------------------15--------------------------18------|
--15---16-15---15------15---15----16-15---15-------15---|
--------------------------------------------------------|
--------------------------------------------------------|
--------------------------------------------------------|
--------------------------------------------------------|


   S S  S  T T  S S  S  S H           W                   W                 
--------------------15-------------|-------------------|-------------------|
--15---16-15---15------15----------|-------------------|-------------------|
-----------------------------------|-------------------|-------------------|
-----------------------------------|-------------------|-------------------|
-----------------------------------|-------------------|-------------------|
-----------------------------------|-------------------|-------------------|


  W                   W                   W                   W                 
-------------------|-------------------|-------------------|-------------------|
-------------------|-------------------|-------------------|-------------------|
-------------------|-------------------|-------------------|-------------------|
-------------------|-------------------|-------------------|-------------------|
-------------------|-------------------|-------------------|-------------------|
-------------------|-------------------|-------------------|-------------------|


  W                   W                   W                   W                 
-------------------|-------------------|-------------------|-------------------|
-------------------|-------------------|-------------------|-------------------|
-------------------|-------------------|-------------------|-------------------|
-------------------|-------------------|-------------------|-------------------|
-------------------|-------------------|-------------------|-------------------|
-------------------|-------------------|-------------------|-------------------|


  W                   W                   W                   W                 
-------------------|-------------------|-------------------|-------------------|
-------------------|-------------------|-------------------|-------------------|
-------------------|-------------------|-------------------|-------------------|
-------------------|-------------------|-------------------|-------------------|
-------------------|-------------------|-------------------|-------------------|
-------------------|-------------------|-------------------|-------------------|


  W                   W                   W                   W                 
-------------------|-------------------|-------------------|-------------------|
-------------------|-------------------|-------------------|-------------------|
-------------------|-------------------|-------------------|-------------------|
-------------------|-------------------|-------------------|-------------------|
-------------------|-------------------|-------------------|-------------------|
-------------------|-------------------|-------------------|-------------------|


  W                   W                   W                   W                 
-------------------|-------------------|-------------------|-------------------|
-------------------|-------------------|-------------------|-------------------|
-------------------|-------------------|-------------------|-------------------|
-------------------|-------------------|-------------------|-------------------|
-------------------|-------------------|-------------------|-------------------|
-------------------|-------------------|-------------------|-------------------|


  W                   W                   W                   W                 
-------------------|-------------------|-------------------|-------------------|
-------------------|-------------------|-------------------|-------------------|
-------------------|-------------------|-------------------|-------------------|
-------------------|-------------------|-------------------|-------------------|
-------------------|-------------------|-------------------|-------------------|
-------------------|-------------------|-------------------|-------------------|


  W                   H         S S  S  S  S S  S  T T  
-------------------|-----------10---11-10-10---15------|
-------------------|------------------------------15---|
-------------------|-----------------------------------|
-------------------|-----------------------------------|
-------------------|-----------------------------------|
-------------------|-----------------------------------|


   S S  S  T T  S S  S  T T  S S  S  T T  S S  S  T T  
--------------------15------------------------13------|
--15---16-15---15------15---13---15-13---13------13---|
------------------------------------------------------|
------------------------------------------------------|
------------------------------------------------------|
------------------------------------------------------|


   S S  S T T S S  S  T T  S S  S  T T  S S  S  T T  
-------10-8---8---13------10---11-10---10---15------|
--13-----------------13------------------------15---|
----------------------------------------------------|
----------------------------------------------------|
----------------------------------------------------|
----------------------------------------------------|


   S S  S  T T  S S  S  T T  S S  S  T T  S S  S  S  
--------------------15------------------------18----|
--15---16-15---15------15---15---16-15---15------15-|
----------------------------------------------------|
----------------------------------------------------|
----------------------------------------------------|
----------------------------------------------------|


   S S  S  T T  S S  S  S  S S  S  T T  S S  S  T T  
--------------------15----------------------15------|
--15---16-15---15------15-15---16-15---15------15---|
----------------------------------------------------|
----------------------------------------------------|
----------------------------------------------------|
----------------------------------------------------|


   S S  T T  S  S S  S  S  S S  T T  T T  S S  S  T T  
--------------------15------------------------13------|
--15---16---15-15------15-13---15---13---13------13---|
------------------------------------------------------|
------------------------------------------------------|
------------------------------------------------------|
------------------------------------------------------|


   S S  S T T S S  S  S  S S  S  T T  S S  S  T T  
-------10-8---8---13----10---11-10---10---15------|
--13-----------------13----------------------15---|
--------------------------------------------------|
--------------------------------------------------|
--------------------------------------------------|
--------------------------------------------------|


   S S  S  T T  S S  S  T T  T S.  S  T T  T S.  S  T T  
--------------------15--------------------------18------|
--15---16-15---15------15---15----16-15---15-------15---|
--------------------------------------------------------|
--------------------------------------------------------|
--------------------------------------------------------|
--------------------------------------------------------|


   S S  S  T T  S S  S  S H           W                   W                 
--------------------15-------------|-------------------|-------------------|
--15---16-15---15------15----------|-------------------|-------------------|
-----------------------------------|-------------------|-------------------|
-----------------------------------|-------------------|-------------------|
-----------------------------------|-------------------|-------------------|
-----------------------------------|-------------------|-------------------|


  W                   W                   W                   W                 
-------------------|-------------------|-------------------|-------------------|
-------------------|-------------------|-------------------|-------------------|
-------------------|-------------------|-------------------|-------------------|
-------------------|-------------------|-------------------|-------------------|
-------------------|-------------------|-------------------|-------------------|
-------------------|-------------------|-------------------|-------------------|


  W                   W                   W                   W                 
-------------------|-------------------|-------------------|-------------------|
-------------------|-------------------|-------------------|-------------------|
-------------------|-------------------|-------------------|-------------------|
-------------------|-------------------|-------------------|-------------------|
-------------------|-------------------|-------------------|-------------------|
-------------------|-------------------|-------------------|-------------------|


  W                   W                  
-------------------|-------------------||
-------------------|-------------------||
-------------------|-------------------||
-------------------|-------------------||
-------------------|-------------------||
-------------------|-------------------||




Duration Legend
---------------
W - whole
H - half
Q - quarter
E - 8th
S - 16th
T - 32nd
X - 64th
. - note dotted
|-n-|  - n-tuplets