Login or Register to remove this ad. | Advertise Here

Main Theme (Fullmetal Alchemist: Brotherhood) Guitar Tab

Submitted: Jan 10, 2012 by Omnicide (Last updated: Jan 10, 2012)

5
Average: 5 (8 votes)
Download | Listen
Game: Fullmetal Alchemist: Brotherhood
Composer(s): Akira Senju
Style: Arrangement, Fingerstyle

This song is also called The Fullmetal Alchemist

AutoScroll: Slow | Medium | Fast
Main Theme
Fullmetal Alchemist: Brotherhood
Composed by Akira Senju
Arranged by William Geesdorf


EGDGBE Tuning


     E  E  Q    S  S S  S    E  E  E  E  E  E     E  E  E  E  E  E     E  E  E  E  E  E   
E||-----------------------|--------------------|--------------------|--------------------|
B||------------------3h-4-|--5-----------------|--3-----------------|--1-----------------|
G||-------------4h-5------|--2-----------------|--4-----------------|--2-----------------|
D||--------2--------------|-----3--2--3--2--3--|--5--3--5--3--5--3--|-----3--2--3--2--3--|
G||--------4--------------|--2-----------------|--------------------|--2-----------------|
E||--------0--------------|--------------------|--5-----------------|--------------------|


  E  E  E  E  E  E     E  E  E  E  E  E     E  E  E  E  E  E     E  E  E  E  E  E   
--------------------|--------------------|--------------------|--------------------|
--0-----------------|--5-----------------|--3-----------------|--1-----------------|
--0-----0-----0-----|--2-----------------|--4-----------------|--2-----------------|
--6--3-----3-----3--|-----3--2--3--2--3--|--5--3--5--3--5--3--|-----3--2--3--2--3--|
--------------------|--2-----------------|--------------------|--2-----------------|
--5-----------------|--------------------|--5-----------------|--------------------|


  E  E  E  E  S  S S  S    E  E  E  E  E  E     E  E  E  E  E  E     E  E  E  E  E  E   
------------------------|--------------------|--------------------|--------------------|
--0----------------3h-4-|--5-----------1-----|--3-----------------|--1-----------------|
--0-----0-----4h-5------|--2-----------2-----|--4-----------------|--2-----------2-----|
--6--3-----3------------|-----3--2--3--2--3--|--5--3--5--3--5--3--|-----3--2--3--2--3--|
------------------------|--2-----------------|--------------------|--2-----------------|
--5-----0---------------|--------------------|--5-----------------|--------------------|


  E  E  E  E  E  E     E  E  E  E  E  E     E  E  E  E  E  E     E  E  E  E  E  E   
--------------------|--------------------|--------------------|--------------------|
--0-----------------|--5-----------1-----|--3-----------------|--1-----------------|
--0-----0-----0-----|--2-----------2-----|--4-----------------|--2-----------2-----|
--6--3-----3-----3--|-----3--2--3--2--3--|--5--3--5--3--5--3--|-----3--2--3--2--3--|
--------------------|--2-----------------|--------------------|--2-----------------|
--5-----------------|--------------------|--5-----------------|--------------------|


  E  E  E  E  E  E     E  E  E  E  E  E     E  E  E  E  S  S S  S    Q    Q    Q     
--------------------|--------------------|------------------------|-----------------|
--0-----------------|--------------------|-------------------3h-4-|--5----5----5----|
--0-----0-----0-----|--------------------|--0-----0-----4h-5------|-------5----5----|
--6--3-----3-----3--|-----3--2--3--2--3--|-----3-----3------------|-------7----7----|
--------------------|--2-----------------|--2---------------------|-----------------|
--5-----------------|--------------------|--------0---------------|--5---------5----|


  E  E  Q    E  E     Q    Q    Q       E  E  Q    E  E     Q    Q    Q     
--------0----------|-----------------|--------0----------|-----------------|
-------------------|-------5----5----|-------------------|-------5----5----|
--------5----------|-------5----5----|--------5----------|-------5----5----|
-----6-------------|-------5----5----|-----6-------------|-------7----7----|
-------------------|-----------------|-------------------|-----------------|
--4----------------|--3--------------|--4----------------|--5---------5----|


  E  E  Q    E  E     Q    Q    Q       E  E  Q    S  S S  S    Q    Q    Q     
--------0----------|-----------------|--------0--------------|-------5----5----|
-------------------|-------5----5----|------------------4h-5-|--6----6----6----|
--------5----------|-------5----5----|--------5----5h-7------|-------7----7----|
-----6-------------|-------5----5----|-----6-----------------|--0---------0----|
-------------------|-----------------|-----------------------|-----------------|
--4----------------|--3--------------|--4--------------------|-----------------|


  E  E  Q    E  E     Q    Q    Q       E  E  Q    E  E     Q    Q    Q     
--------5----------|-------5----5----|--------5----------|-------5----5----|
--------6----------|-------6----6----|--------6----------|-------6----6----|
-----6-------------|-------5----5----|-----6-------------|-------7----7----|
-------------------|-----------------|-------------------|--0---------0----|
--6----------------|--5--------------|--6----------------|-----------------|
-------------------|-----------------|-------------------|-----------------|


  E  E  Q    E  E     Q    Q    Q       E  E  Q    S  S S  S    Q    Q    Q     
--------5----------|-------5----5----|--------5---------3h-4-|--5--------------|
--------6----------|-------6----6----|--------6----6h-7------|-------5----5----|
-----6-------------|-------5----5----|-----6-----------------|-------5----5----|
-------------------|-----------------|-----------------------|-------7----7----|
--6----------------|--5--------------|--6--------------------|-----------------|
-------------------|-----------------|-----------------------|--5---------5----|


  E  E  Q    E  E     Q    Q    Q       E  E  Q    S  S S  S    E  E  E  E  E  E   
--------0----------|-----------------|--------0--------------|--------------------|
-------------------|-------5----5----|------------------3h-4-|--5--------------5--|
--------5----------|-------5----5----|--------5----5h-6------|--------5-----5-----|
-----6-------------|-------5----5----|-----6-----------------|-----7-----7--------|
-------------------|-----------------|-----------------------|--------------------|
--4----------------|--3--------------|--4--------------------|--0-----------------|


  E  E  H           E  E  E  E  E  E     E  E  H           E  E  E  E  E  E   
-----------------|--------------------|-----------------|-----------------0--|
--3-----3--------|--1--------------1--|--0-----0--------|--------------1-----|
--------4--------|--------2-----2-----|--------1--------|-----------2--------|
-----6-----------|-----2-----2--------|-----0-----------|--------2-----------|
-----------------|--------------------|-----------------|--------------------|
--0--------------|--0-----------------|--0--------------|--0-----------------|


  E  E  E   E  E  E     E  E  E  E  E  E     E  E  E   E  S. S S.    E  E  E  E  E  E   
---------------------|-----------------0--|-----------------------|--------------------|
------------------0--|--------------1-----|--------------------3--|--5-----6-----5-----|
---------------1-----|-----------2--------|---------------1h-4----|--------5-----5-----|
--------0h--2--------|--------2-----------|--------0h--2----------|--7--7-----7-----7--|
---------------------|--------------------|-----------------------|--------------------|
--0------------------|--0-----------------|--0--------------------|--5-----------------|


  E  E  E  E  E  E     E  E  E  E  E  E     E  E  E  E  E  E     E  E  E  E  E  E   
--------------------|--------------------|--7-----------------|--------------------|
--8-----6-----5-----|--5-----------------|--------------------|--5-----6-----5-----|
--------5-----5-----|--------4-----4-----|--------4-----4-----|--------3-----3-----|
-----7-----7-----7--|-----6-----6-----6--|-----6-----6-----6--|-----5-----5-----5--|
--------------------|--------------------|--------------------|--------------------|
--5-----------------|--4-----------------|--4-----------------|--3-----------------|


  E  E  E  E  E  E     E  E  E  E  E  E     E  E  E  E  E  E     E  E  E  E  E  E   
--3-----------------|--------------------|--5-----------------|--------0-----------|
--------6-----5-----|--3-----------------|--------------------|--3-----------3-----|
--------3-----3-----|--------2-----2-----|--------2-----2-----|--------2-----2-----|
-----5-----5-----5--|-----4-----4-----4--|-----4-----4-----4--|-----3-----3-----3--|
--------------------|--------------------|--------------------|--------------------|
--3-----------------|--2-----------------|--2-----------------|--1-----------------|


  E  E  E  E  E  E     E  E  E  E  E  E     E  E  E  E  E  E     E  E  E  E  E  E   
--1-----0-----------|--0-----------------|--5-----------8-----|--7-----8-----7-----|
--------------3-----|--------------------|--------------------|--------7-----7-----|
--------2-----2-----|--------2-----2-----|--------2-----------|-----8-----8-----8--|
-----3-----3-----3--|-----2-----2-----2--|-----2-----2--------|--------------------|
--------------------|--------------------|-----------------9--|--------------------|
--1-----------------|--0-----------------|--0-----------0-----|--7-----------------|


   E  E  E  E  E  E      E  E  E  E  E  E     E  E  E  E  E  E     E   E  E   E  E   E   
--10-----8-----7-----|---------------------|--------------------|-----------------------|
---------7-----7-----|--10-----------------|--9-----------------|--8------9------8------|
------8-----8-----8--|---------9-----9-----|--------9-----9-----|---------8------8------|
---------------------|------9-----9-----9--|-----9-----9-----9--|-----10-----10-----10--|
---------------------|---------------------|--------------------|-----------------------|
---7-----------------|---0-----------------|--0-----------------|--8--------------------|


   E   E  E   E  E   E     E  E  E  E  E  E      E  E  E  E  E  E     E  E  E  E  E  E   
------------------------|--------------------|--10-----------------|--------------------|
--11------9------8------|--8-----------------|---------------------|--8-----9-----8-----|
----------8------8------|--------7-----7-----|---------7-----7-----|--------6-----6-----|
------10-----10-----10--|-----9-----9-----9--|------9-----9-----9--|-----8-----8-----8--|
------------------------|--------------------|---------------------|--------------------|
---8--------------------|--7-----------------|---7-----------------|--6-----------------|


  E  E  E  E  E  E     E  E  E  E  E  E     E  E  E  E  E  E     E  E  E  E  E  E   
--6-----------------|--------------------|--8-----------------|--------------------|
--------9-----8-----|--6-----------------|--------------------|--6-----8-----6-----|
--------6-----6-----|--------5-----5-----|--------5-----5-----|--------5-----5-----|
-----8-----8-----8--|-----7-----7-----7--|-----7-----7-----7--|-----6-----6-----6--|
--------------------|--------------------|--------------------|--------------------|
--6-----------------|--5-----------------|--5-----------------|--4-----------------|


  E  E  E  E  E  E     E  E  E  E  E  E     E  E  E  E   E  E   
--4-----------------|--------------------|--8-----------11-----|
--------8-----6-----|--3-----------------|---------------------|
--------5-----5-----|--------5-----5-----|--------5---------0--|
-----6-----6-----6--|-----5-----5-----5--|-----5-----5---------|
--------------------|--------------------|---------------------|
--4-----------------|--3-----------------|---------------------|


   E   E   E   E   E   E      E   E   E   E   E   E      E   E   E   E   E   E   
--10------11------10------|--13------11------10------|--------------------------|
----------10------10------|----------10------10------|--13----------------------|
------11------11------11--|------11------11------11--|----------12------12------|
--------------------------|--------------------------|------12------12------12--|
--------------------------|--------------------------|---0----------------------|
--10----------------------|--10----------------------|--------------------------|


   E   E   E   E   E   E     Q    Q    Q       Q    Q    Q       Q    Q    Q     
--------------------------|-----------------|-----------------|-----------------|
--12----------------------|-----------------|--3--------------|--4--------------|
----------12------12------|--5----4----5----|------------5----|--4--------------|
------12------12------12--|--5--------------|-----------------|--5----6----5----|
---0----------------------|--5--------------|-----------------|--4--------------|
--------------------------|-----------------|-----------------|-----------------|


  Q    Q    Q       Q    Q     Q       Q    Q    Q       Q    Q    Q     
-----------------|------------------|-----------------|--6--------------|
------------3----|--7----8----10----|--7---------8----|--5--------------|
-----------------|--7---------------|------------7----|------------6----|
--4--------------|------------------|-------8---------|-------7---------|
-----------------|------------------|-----------------|-----------------|
-----------------|--6---------------|-----------------|--5--------------|


  Q    Q    Q       Q    Q    Q       Q    Q    Q       Q    Q    Q       Q    Q    Q     
--5--------------|--0--------------|-----------------|--0--------------|-----------------|
--5--------------|--3---------3----|-------2----3----|--3---------3----|-------1----0----|
-----------------|------------2----|-----------------|------------1----|-----------------|
-----------------|-------3---------|-----------------|-------2---------|-----------------|
-----------------|-----------------|-----------------|-----------------|------------7----|
------------3----|--1--------------|--1--------------|--0--------------|--0--------------|


  Q    Q    Q       Q    Q    Q       Q    Q    Q       Q    Q    Q       Q    Q    Q     
-----------------|-----------------|-----------------|-----------------|--2---------0----|
--0--------------|-----------------|--0--------------|-----------------|--3---------3----|
--0---------2----|-------1----2----|--0---------2----|-------0---------|-------0---------|
-------2----2----|-----------------|-------1----1----|------------4----|-----------------|
--5--------------|--5--------------|--4--------------|--4---------2----|--0--------------|
-----------------|-----------------|-----------------|-----------------|-----------------|


  Q    Q    Q       Q    Q    Q       Q    Q    Q       Q    Q    Q       Q    Q    Q     
------------0----|--0--------------|-------0---------|-----------------|-----------------|
-------4---------|--3---------3----|------------3----|--3---------1----|-------0----1----|
-----------------|------------2----|-----------------|--2---------2----|-----------------|
-------4----2----|-------4---------|-----------------|-------3---------|-----------------|
--0--------------|-----------------|-----------------|-----------------|-----------------|
-----------------|--2--------------|--2--------------|--1--------------|--1--------------|


  Q    Q    Q       Q    Q    Q       Q    Q    Q       Q    Q    Q       Q    Q    Q     
-----------------|-----------------|-----------------|-----------------|-----------------|
--1---------0----|------------0----|-----------------|-----------------|-----------------|
--2---------2----|-------3---------|--2--------------|-----------------|-----------------|
-------2---------|-----------------|--0----2----0----|--3----2----0----|--6--------------|
-----------------|-----------------|-----------------|-----------------|--5----7----5----|
--0--------------|--0--------------|--0--------------|------------0----|--0--------------|


  Q    E  E  E  E     Q    Q    Q       Q    Q    Q       Q    Q    Q     
-------------------|-----------------|-----------------|-----------------|
-------------------|--5----6----5----|--8----6----5----|--5--------------|
-------------------|--5--------------|-----------------|--4---------4----|
----------------0--|--7--------------|-----------------|--6----6---------|
--4----------4-----|-----------------|-----------------|-----------------|
-------0--4--------|--5--------------|-----------------|--4--------------|


  Q    Q    Q       Q    Q    Q       Q    Q    Q       Q    Q    Q     
--7--------------|-----------------|--3--------------|-----------------|
--5--------------|--5----6----5----|-------6----5----|--3--------------|
-------4---------|--3--------------|-----------------|--2---------2----|
------------6----|--5--------------|-----------------|--4----4---------|
-----------------|-----------------|-----------------|-----------------|
-----------------|--3--------------|-----------------|--2--------------|


  E   E  E  E  E  E     Q    Q    Q       Q    Q    Q       Q    Q    Q     
--5p--0--------------|-------0---------|--1----0---------|--0--------------|
---------3-----------|--3---------3----|------------3----|--1--------------|
------------0--------|--2--------------|-----------------|--2---------2----|
---------------4-----|--3--------------|-----------------|-------2---------|
---------------------|-----------------|-----------------|-----------------|
---------------------|--1--------------|-----------------|--0--------------|


  Q    Q    Q       Q    Q    Q        Q    Q    Q        Q    Q    Q     
--5---------8----|--7----8----7----|--10----8----7----|------------------|
-----------------|--7--------------|------------------|--10--------------|
--5--------------|--8--------------|------------------|---9--------------|
-------7---------|-----------------|------------------|---9--------------|
------------9----|-----------------|------------------|------------------|
-----------------|--7--------------|------------------|---0----0----0----|


  Q    Q    Q        Q    E  E  Q        Q    E  E  Q       Q    E  E  Q     
-----------------|-------------------|-------------------|------------------|
-------9---------|---8----9-----8----|--11----9-----8----|--8---------------|
-------9---------|---8----8-----8----|---8----8-----8----|--7---------------|
-------9---------|--10---------------|-------------------|--9---------------|
-----------------|-------------------|-------------------|------------------|
--0----0----0----|---8-------8-------|---8-------8-------|--7----7--7--7----|


   Q    E  E  Q       Q    E  E  Q       Q    E  E  Q       Q    E  E  Q     
--10---------------|------------------|--6---------------|------------------|
---8---------------|--8----9-----8----|-------9-----8----|--6---------------|
---7---------------|--6----6-----6----|--6----6-----6----|--5---------------|
-------------------|--8---------------|------------------|--7---------------|
-------------------|------------------|------------------|------------------|
---7----7--7--7----|--6-------6-------|--6-------6-------|--5----5--5--5----|


  Q    E  E  Q       Q    E  E  Q       Q    E  E  Q       Q    E  E  Q     
--8---------------|------------------|--4---------------|------------------|
--6---------------|--6----8-----6----|-------8-----6----|--3---------------|
--5---------------|--5----5-----5----|--5----5-----5----|--5---------------|
------------------|--6---------------|------------------|--5---------------|
------------------|------------------|------------------|------------------|
--5----5--5--5----|--4-------4-------|--4-------4-------|--3----3--3--3----|


  Q    E  E   Q        Q     E   E   Q        Q     E   E   Q        Q    E  E  Q     
--8----------11----|--10----11------10----|--13----11------10----|-------------------|
--8-----------8----|--10----10------10----|--10----10------10----|--13---------------|
--8-----------8----|--11------------------|----------------------|--12---------------|
-------------------|----------------------|----------------------|--12---------------|
-------------------|----------------------|----------------------|---0----0--0--0----|
-------3--3--------|--10--------10--------|--10--------10--------|-------------------|


   Q    E  E  Q       Q    E  E  Q       Q    E  E  Q       Q    E  E  Q     
-------------------|------------------|------------------|------------------|
--12---------------|--4----6-----4----|--8----6-----4----|--6----8-----6----|
--12---------------|--5----5-----5----|--5----5-----5----|--7----7-----7----|
--12---------------|--5----5-----5----|--5----5-----5----|--6----6-----6----|
---0----0--0--0----|--5-------5-------|--5-------5-------|------------------|
-------------------|------------------|------------------|--8-------8-------|


  Q    E  E  Q       Q    E  E  Q       Q    E  E  Q       Q    E  E  Q     
------------------|------------------|------------------|------------------|
--9----8-----6----|--4----6-----4----|--8----6-----4----|--6----8-----6----|
--7----7-----7----|--5----5-----5----|--5----5-----5----|--7----7-----7----|
--6----6-----6----|--5----5-----5----|--5----5-----5----|--6----6-----6----|
------------------|--5-------5-------|--5-------5-------|------------------|
--8-------8-------|------------------|------------------|--8-------8-------|


                     ^               
  Q    E  E  Q       H        Q      
------------------|----------------||
--9----8-----6----|--4--------L----||
--7----7-----7----|--5--------L----||
--6----6-----6----|--5--------L----||
------------------|--5--------L----||
--8-------8-------|----------------||




Duration Legend
---------------
W - whole
H - half
Q - quarter
E - 8th
S - 16th
T - 32nd
X - 64th
. - note dotted
|-n-|  - n-tuplets


Tablature Legend
----------------
L - tied note
h - hammer on
p - pull off
^ - brush up

5 comments on Main Theme

it's perfect! i hope you can

5

it's perfect!
i hope you can do more songs from brotherhood :)

PErfect!

5

I wonder what the chords are?

I love FMAB!

5

I love FMAB! I hope to see more FMAB from you.

Whoa. Crazy Tab!

5

I love this song, though I wish I could play it faster than 1/4 of the tempo xD But I guess practice makes perfect. Amazing tab, hope to see more from you!

Boa ! - Nice !

Ă“timo trabalho, obrigado por compartilhar tal obra!

-

Great job, thanks for sharing this work!