Login or Register to remove this ad. | Advertise Here

Ballad of Freddy Pharkas (Freddy Pharkas, Frontier Pharmacist) Guitar Tab

Submitted: Jul 01, 2009 by auriplane (Last updated: Feb 04, 2010)

0
Download | Listen
Game: Freddy Pharkas, Frontier Pharmacist
Composer(s): Al Lowe, Josh Mandel, Aubrey Hodges
Style: 2 or more instruments, Arrangement, Fingerstyle

AutoScroll: Slow | Medium | Fast
         Freddy Pharkas, Frontier Pharmacist - The Ballad of Freddy Pharkas  
                    Song by Josh Mandel, Al Lowe, Aubrey Hodges

              Arranged for two guitars by auriplane (crystal@panix.com)


The GP5 file and MIDI have a third track which is the singing.  The lyrics are
at Al Lowe's web site: http://www.allowe.com/FPFP/ballad.htm

Drop-D tuning, capo on 1 (both guitars)

    Intro

|----------------|----------------|----------------|----------------|
|----------------|2---2---0-------|----------------|2---2---0-------|
|----2---2-----2-|----------2---2-|----2---2-----2-|--------1-------|
|2-4-------2-4---|2-----------4---|2-4-------2-4---|2---2-----------|
|----------------|----------------|----------------|----------------|
|----------------|----------------|----------------|----------------|
|                |                |                |                |
|----------------|----------------|----------------|----------------|
|----------------|----------------|----------------|----------------|
|----------------|----------------|----------------|----------------|
|----------------|----------------|----------------|--------2-------|
|0-----0---------|0-----0---------|0-----0---------|0---------------|
|--------0-------|--------0-------|--------0-------|------------2---|


|----------------|----------------|----------------|----------------|
|----------------|2---2---0-------|----------------|----------------|
|----2---2-----2-|----------2---2-|----2---2-----2-|----1---2-------|
|2-4-------2-4---|2-----------4---|2-4-------2-4-2-|--2-----2-------|
|----------------|----------------|----------------|----------------|
|----------------|----------------|----------------|----------------|
|                |                |                |                |
|----------------|----------------|----------------|----------------|
|----------------|----------------|----------------|----------------|
|----------------|----------------|----------------|----------------|
|----------------|----------------|----------------|------------2-4-|
|0-----0---------|0----0----------|0-----0---------|--------0-------|
|--------0-------|----------0-----|--------0-------|0---2-----------|

    Verse

|----0-------0---|----0-------0---|----2-------2---|----2-----------|
|----2-------2---|----2-------2---|----3-------3---|----3-------4---|
|----2-------2---|----2-------2---|----2-------2---|----2-------2---|
|----------------|----------------|----------------|------------4---|
|0---------------|0---------------|--------0-------|----------------|
|--------2-------|--------2-------|0---------------|0-------1-------|
|                |                |                |                |
|----------------|----------------|----------------|----------------|
|--------------0-|2---2---0-------|--------------0-|2---2---0-------|
|2---2---2---2---|----------2-----|2---2---2---2---|----------2-----|
|----------2-----|------------4-2-|----------2-----|------------4-2-|
|0-----0---------|0-----0-------0-|--------0-------|--------0-------|
|--------2-------|--------2-------|0-----0---------|0---0---------2-|


|----0-------0---|----0-----------|----------------|----------------|
|----2-------2---|----2-----------|----4-------4---|----------------|
|----2-------2---|----2-----------|----2-------2---|----1-----------|
|----------------|----------------|----4-------4---|----0-----------|
|0---------------|0-----------1---|2---------------|----------------|
|--------2-------|--------2-------|--------4-------|2---3---4---6---|
|                |                |                |                |
|----------------|----------------|----------------|----------------|
|--------------0-|2---2---0-------|2---2---2---0---|0---0-----------|
|2---2---2---2---|----------2-----|--------------2-|--2---2-1-------|
|----------2-----|------------2---|----4-------4---|----------4-2-4-|
|0-----0---------|0-----0-------0-|2-----2-2-------|----------------|
|--------2-------|--------2-------|----------------|2---------------|


|----0-------0---|----0-------0---|----2-------2---|----2-----------|
|----2-------2---|----2-------2---|----3-------3---|----3-------4---|
|----2-------2---|----2-------2---|----2-------2---|----2-------2---|
|----------------|----------------|----------------|------------4---|
|0---------------|0---------------|--------0-------|----------------|
|--------2-------|--------2-------|0---------------|0-------1-------|
|                |                |                |                |
|----------------|----------------|----------------|----------------|
|--------------0-|2---2---0-------|0---2---0-------|0-2-0-----------|
|2---2---2---2---|----------2-----|------------2---|------2-1-2-1---|
|----------2-----|------------4-2-|----------------|--------------2-|
|0-----0---------|0-----0-------0-|--------0-----0-|--------0-------|
|--------2-------|--------2-------|0---------------|0-------------2-|


|----------------|----------------|----------------|----------------|
|----2-------2---|----2-------2---|----2-------0---|2-------2-------|
|----2-------2---|----2-------2---|----2-------1---|2-------2-----2-|
|----2-------2---|----2-------2---|----2-------2---|2-------2-------|
|0---------------|0---------------|0---------------|--------0-------|
|--------2-------|--------2-------|--------2-------|----------------|
|                |                |                |                |
|----------------|----------------|----------------|----------------|
|--------------0-|2---2---0-------|0-2-0---0-------|----------------|
|2---2---2---2---|----------2-1-2-|------2---2-----|2-------2-------|
|----------2-----|----------------|------------4-2-|----------------|
|0-----0---------|0-----0-------0-|0---------------|0-------0-------|
|--------2-------|--------2-------|--------2-------|----2-----------|

    Chorus

|2---5-----------|--------5-----7-|----------------|--------------9-|
|5---5-----------|--------5-----5-|7---5-----------|------------10--|
|----------------|----------------|----------------|----------9-----|
|----------------|----------------|----------------|--------7-------|
|----------------|----------------|----------------|----------------|
|----------------|----------------|----------------|----------------|
|                |                |                |                |
|----------------|----------------|----------------|----------------|
|----------------|--------0-2-0---|----------------|--------0-2-0---|
|----2---2-------|2---2---------2-|----2---2-------|2---2---------2-|
|2-4---------2-4-|----------------|2-4---------2-4-|----------------|
|--------0-----0-|--------0-----0-|0---------------|0---0---0-------|
|0---------------|0---0-----------|--------2-----2-|----------------|


|10------10------|10--9---7---9---|----7-------5---|--------2-------|
|----------------|----------------|----8-------8---|--------------5-|
|----------------|9---9---9---9---|----9-----------|----------------|
|----------------|----------------|----------------|----------------|
|----------------|----------------|----------------|----------------|
|----------------|----------------|----------------|----------------|
|                |                |                |                |
|----------------|----------------|----------------|----------------|
|----------------|------------2---|--------------2-|----------------|
|2-------2-------|2---2---2-------|------------2---|2---0-----------|
|2-------2-------|2---2---2---2---|----2---2-4-----|------2---4---2-|
|----------------|------------0---|----------------|--------0---0---|
|0-------0-------|2---2---2-------|----5-------4---|0---------------|


|2---5-----------|--------5-----7-|----------------|--------------9-|
|5---5-----------|--------5-----5-|7---5-----------|------------10--|
|----------------|----------------|----------------|----------9-----|
|----------------|----------------|----------------|--------7-------|
|----------------|----------------|----------------|----------------|
|----------------|----------------|----------------|----------------|
|                |                |                |                |
|----------------|----------------|----------------|----------------|
|----------------|--------0-2-0---|----------------|--------0-2-0---|
|----2---2-------|2---2---------2-|----2---2-------|2---2---------2-|
|2-4---------2-4-|----------------|2-4---------2-4-|----------------|
|--------0-----0-|--------0-----0-|0---------------|0---0---0-------|
|0---------------|0---0-----------|--------2-----2-|----------------|


|10------9-------|7---5-------5---|
|----------------|--------7-------|
|9-------9-------|----------------|
|----------------|----------------|
|----------------|----------------|
|----------------|----------------|
|                |                |
|----------------|----------------|
|----------------|----------------|
|2-------2-------|----------------|
|2-------2-------|6---------------|
|----------------|7---------------|
|2-------4-------|6---------------|


|----------------|----------------|----------------|----------------|
|----------------|2---2---0-------|----------------|----------------|
|----2---2-----2-|----------2---2-|----2-------2---|----1---2-------|
|2-4-------2-4---|2-----------4---|2-4-----2-4-2---|--2-----2-------|
|----------------|----------------|----------------|----------------|
|----------------|----------------|----------------|----------------|
|                |                |                |                |
|----------------|----------------|----------------|----------------|
|----------------|----------------|----------------|----------------|
|----------------|----------------|----------------|----------------|
|----------------|----------------|----------------|------------2-4-|
|0-----0---------|0---0-----------|0-----0---------|--------0-------|
|--------0-------|--------0-------|--------0-------|0---2-----------|

3 comments on Ballad of Freddy Pharkas

Highest score on his

Highest score on his S.A.T
You rock my world.

FIVE YEAR COLLEGE DEGREEEEEE

FIVE YEAR COLLEGE DEGREEEEEE

Very nice arrangement auri,

Very nice arrangement auri, it's such a fun song XD