Login or Register to remove this ad. | Advertise Here

Mega Man 6 - Tomahawk Man and Mr X Stages

Brainsick Fungus

Minstrel of the Fungal Funk

Joined: Apr 24 2009

Good melodies never die. We are gathered here today to honor the legacy of Yuko Takehara by submitting two masterpieces... for the privilege of being recorded for all time within the hallowed halls of gametabs.net

Join with me, my Blue Brothers, to salute...and remember!
*salute*

TomahawkManMidiTab
Mr. X's Stages MidiTab

*salute* We stand in

wayfaerer

"Embrace your dreams."

Location: The Lifestream

Joined: Apr 03 2011

*salute*

We stand in memorandum

Solemn silence

----------

"i seem to be find a lot that apparently dont contain the .exe actually" -Anonymous

"Has anyone really been far as decided to use even go want to look more like?" -Pherioxus

For Mr. X's theme, the first

auriplane

Joined: Sep 06 2008

For Mr. X's theme, the first half sounds great. The second half sounds like you tabbed harmony rather than melody. I tried to write out the melody without changing your style:

e---2---2-3--------2------2---2-3----------5-9-5---7----------|
B-5---5-----3--3-5---2------5-----3--3-5-7-------7------------|
G----------------------2--------------------------------------|
D-------------------------------------------------------------|
A-------------------------------------------------------------|
E-------------------------------------------------------------|


e----------10-9----------------------12-12-10----9-10-------9-----9----4-6-|
B-12-10-12------10-10-12-13-14-13-14----------12------12-12----12----7-----|
G--------------------------------------------------------------------------|
D--------------------------------------------------------------------------|
A--------------------------------------------------------------------------|
E--------------------------------------------------------------------------|

What do you think?

----------

Auriplane!!

The Tomahawk Man tab sounds

auriplane

Joined: Sep 06 2008

The Tomahawk Man tab sounds perfect, except for one note:

e------------------------7-5-----------------------5--5-0-5-0-8-8-8-7-----|
B-5-8-8-5-7-8----8-8-7-8-----8-7-8--8-5-7-8--8-7-8------------------------|
G-------------7-----------------------------------------------------------|
D-------------------------------------------------------------------------|
A-------------------------------------------------------------------------|
E-------------------------------------------------------------------------|

I don't hear that last 0 on the e string. Do you want me to post your tab the way it is, or should I take that note out?

----------

Auriplane!!

Hello Auriplane, I apologize

Brainsick Fungus

Minstrel of the Fungal Funk

Joined: Apr 24 2009

Hello Auriplane,
I apologize for taking so long to respond.

for tomahawk man, that extra 0 is in the midi I used to go with the tab, but that note isn't in the original song, so go ahead and take it out.

as for mr X, I had no idea thats what I was doing! thanks for showing me the light and giving me a head start on it. I want to rework it completely to include both harmony and melody parts. I will resubmit in a couple days.

Resubmitting Tomahawk Man Mr.

Brainsick Fungus

Minstrel of the Fungal Funk

Joined: Apr 24 2009

Resubmitting
Tomahawk Man
Mr. X

http://www.gametabs.net/mega-

hslesperance

Location: Walpole, MA

Joined: Aug 10 2008

http://www.gametabs.net/mega-man-6/tomahawk-man
http://www.gametabs.net/mega-man-6/mr-x

Remakes uploaded

----------

My Original Songs - https://soundcloud.com/hslesperance

Thanks!

Brainsick Fungus

Minstrel of the Fungal Funk

Joined: Apr 24 2009

Thanks!