Login or Register to remove this ad. | Advertise Here

Vanille's Theme (Final Fantasy XIII) Guitar Tab

Submitted: Aug 16, 2011 by Naen (Last updated: Dec 24, 2013)

5
Average: 5 (3 votes)
Download | Listen
Game: Final Fantasy XIII
Composer(s): Masashi Hamauzu
Style: Arrangement, Fingerstyle
Series: Final Fantasy

This song is also called Memories of Happier Days

AutoScroll: Slow | Medium | Fast
IMG_ final fantasy xiii.jpg

VANILLE'S THEME, Memories of happier days
Final Fantasy XIII
Square Enix

Composed by: Masashi Hamauzu
Arranged by: Naen
Capo 3

  Q=94
 4/4


     ^                                                            
     W                   Q    Q    Q    Q       W                 
E||--0----------------|--0---------2----0----|--5----------------|
B||--0----------------|--2-------------------|--0----------------|
G||--2----------------|--4----4--------------|-------------------|
D||--0----------------|----------------------|--2----------------|
A||-------------------|----------------------|-------------------|
E||-------------------|----------------------|-------------------|


  Q    Q    Q    Q       Q    Q    Q    Q       Q    Q    Q    Q     
--0----0----0----0----|--0----0----0----0----|--0----0----0----0----|
--2----2----2----2----|--2----2----2----2----|--2----2----2----2----|
--4---------2---------|--4---------2---------|--4---------2---------|
----------------------|----------------------|----------------------|
----------------------|----------------------|----------------------|
----------------------|----------------------|----------------------|


                         ^                                           
  Q    Q    Q    Q       Q    Q    Q    Q       Q    Q    Q    Q     
--0----0----0----0----|--0---------2---------|--4---------5---------|
--2----2----2----2----|--2----2----2----2----|--2----2----2----2----|
--4---------2---------|--4----4----2----2----|--4----2----2----2----|
----------------------|----------------------|----------------------|
----------------------|----------------------|----------------------|
----------------------|----------------------|----------------------|


  Q    Q    Q    Q       Q    Q    Q    Q       Q    Q    Q    Q     
--4-------------------|--2-------------------|--2-------------------|
--4----4----4----4----|--4----4----4----4----|--2----2----2----2----|
--4----4----2----2----|--4----4----2----2----|--4----4----2----2----|
----------------------|----------------------|----------------------|
----------------------|----------------------|----------------------|
----------------------|----------------------|----------------------|


  Q    Q    Q    Q       Q    Q    Q    Q       Q    Q    Q    Q     
--0-------------------|--0----0----0----0----|--0----0----0----0----|
--2----2----3----2----|--2-------------------|----------------------|
--4----4----4----4----|--2----2----2----2----|--2----2----2----2----|
----------------------|----------------------|--2---------0---------|
----------------------|----------------------|----------------------|
----------------------|----------------------|----------------------|


  ^         T                                                          
  Q    Q    Q    Q       Q    Q    Q    Q       Q    Q     Q     Q     
--0---------5---------|------------7----9----|--2---------12----------|
--0----0----2----0----|--0----0----5----5----|--0----0-----0-----0----|
--2----2----2----2----|--2----2---------0----|--2----2----------------|
--2-------------------|--2-------------------|------------------------|
--4---------0---------|--4-------------------|------------12----12----|
----------------------|------------0---------|------------------------|


  Q    Q    Q    Q       Q    Q    Q    Q       Q    Q    Q    Q     
------------5---------|--5-------------------|--4-------------------|
--0----0----2----0----|--2----2----2----2----|--2----2----2----2----|
--2----2----2----2----|--2----2----2----2----|--2----2----2----2----|
--0-------------------|--0---------0---------|--0---------0---------|
----------------------|----------------------|----------------------|
----------------------|----------------------|----------------------|


  Q    Q    Q    Q       Q    Q    Q    Q       Q    Q    Q    Q     
--5-------------------|--5-------------------|--0-------------------|
--3-------------------|--0----2--------------|-------2----2----2----|
--0----0----0----0----|--0----0----0----2----|--2----2----2----2----|
--0----0----0----0----|--0----0----2----0----|--2----4----4----4----|
--0---------0---------|--0-------------------|--2-------------------|
----------------------|----------------------|----------------------|


  Q    Q    Q    Q       Q    Q    Q    Q       Q    Q    Q    Q     
----------------------|----------------------|----------------------|
--3----2----2----2----|--2-------------------|--0-------------------|
--2----2----2----2----|--2----2----2----2----|--2----2----2----2----|
--2----4----4----4----|--2----2----2----2----|--2----2----2----2----|
----------------------|----------------------|----------------------|
----------------------|----------------------|----------------------|


  ^                                                                
  Q    Q    Q    Q       H        H           Q    Q    Q    Q     
----------------------|-----------2--------|--0-------------------|
----------------------|--2-----------------|--2-------------------|
--2---------1----2----|--2-----------------|-------2--------------|
--2----2----2----2----|--2-----------------|--0---------0---------|
--2-------------------|--------------------|--2--------------0----|
----------------------|--------------------|----------------------|


  T                                                            
  W                   W                   Q    Q    Q    Q     
-------------------|-------------------|----------------------|
-------------------|-------------------|--0---------2---------|
-------------------|-------------------|--2----2----2----2----|
--0----------------|--L----------------|--4-------------------|
--0----------------|--L----------------|----------------------|
--2----------------|--L----------------|----------------------|


  Q    Q    Q    Q       Q    Q    Q    Q       Q    Q    Q    Q     
----------------------|------------0---------|-------2--------------|
-------3----0---------|--0---------3---------|--2----2----3----2----|
--2----2----2----2----|--2----2----2----2----|--2----2----2----2----|
--3----3----3----3----|--3----3----3----3----|--2----2----2----2----|
----------------------|----------------------|----------------------|
----------------------|----------------------|--2-------------------|


                         ^                                     
  Q    Q    Q    Q       W                   W                 
----------------------|-------------------|--2----------------|
----------------------|--2----------------|-------------------|
-------2----2----2----|--2----------------|-------------------|
--4----4----4----4----|--4----------------|-------------------|
-------5----5----5----|--5----------------|-------------------|
--0-------------------|-------------------|-------------------|


                                              ^                    
  Q    Q    Q    Q       H        H           Q    Q    Q    Q     
----------------------|--------------------|--5---------3---------|
--3---------3---------|-----------3--------|--2---------1---------|
--2----2----2----2----|--2-----------------|--2----2---------2----|
-------3----3----3----|--0-----------------|--2---------3---------|
-------5----5----5----|--0-----------------|--2-------------------|
----------------------|--1-----------------|----------------------|


                         ^                  
  Q    Q    Q    Q       W                  
--1-------------------|--0----------------||
--1--------------3----|--2----------------||
--2---------2---------|--2----------------||
--3----0--------------|--2----------------||
----------------------|--0----------------||
----------------------|-------------------||

3 comments on Vanille's Theme

this is such a nice tune,

5

this is such a nice tune, thanks for tabbing it :D

*-*

wow...you did a really great job Naen =)I love it ^0^

I've wanted to play this one

5

I've wanted to play this one for a long time now, thanks for tabbing it :3