Login or Register to remove this ad. | Advertise Here

Promised Eternity (Final Fantasy XIII) Guitar Tab

Submitted: Feb 20, 2012 by Naen

5
Average: 5 (2 votes)
Download | Listen
Game: Final Fantasy XIII
Composer(s): Masashi Hamauzu
Style: Arrangement
Series: Final Fantasy

AutoScroll: Slow | Medium | Fast
                              Promised Eternity                                 
Final fantasy XIII
Masashi Hamauzu

                                                                       Arr: NaeN

     ^                ^                  ^                              
     Q    Q     Q     Q        Q    Q    H           Q    H.            
E||--5---------10-----8----|---L---------5--------|--2-----------------|
B||--6----8-----------8----|---L----8----5--------|-------3------------|
G||--7----------------9----|---L---------5--------|--------------------|
D||--8---------------10----|---L---------0--------|--------------------|
A||------------------------|----------------------|--------------------|
E||------------------------|----------------------|--------------------|

  ^                ^                  ^                                 
  Q    Q     Q     Q        Q    Q    Q    Q       Q    Q     H         
--5---------10-----8----|---L---------5---------|-------5----10--------|
--6----8-----------8----|--------8----6---------|--6-------------------|
--7----------------9----|---L---------5----5----|----------------------|
--8---------------10----|---L---------5---------|----------------------|
------------------------|-----------------------|----------------------|
------------------------|-----------------------|----------------------|

  Q    Q     Q    Q       Q    Q    H           W                 
--5----3----10----8----|-------3----5--------|--L----------------|
-----------------------|------------3--------|--L----------------|
-------3---------------|--3---------3--------|--L----------------|
-------3---------------|--3------------------|-------------------|
-----------------------|---------------------|-------------------|
--3---------------3----|------------3--------|--L----------------|

                        ^              ^                 ^          
  W                     Q    Q    Q    Q       Q    Q    Q    Q     
--L----------------||---5--------------3----|--1----0--------------|
--L----------------||---6---------3----3----|--1----1----3---------|
--L----------------||*--7-------------------|------------3---------|
-------------------||*--0----7--------------|-----------------0----|
-------------------||-----------------------|----------------------|
--L----------------||------------------3----|------------3---------|


  Q    Q    Q    Q         H        Q    Q       Q    Q    Q    Q     
-----------------5-----||--5-------------3----|------------5---------|
-------3----6----------||--6--------3----3----|--3--------------3----|
--2-------------------*||--7-------------4----|-----------------3----|
----------------------*||--0------------------|----------------------|
-----------------------||---------------------|-------0--------------|
-----------------------||---------------------|----------------------|

  Q    Q    Q    Q        Q     Q     Q    Q       Q    Q    Q    Q     
-------3--------------|--10----------------8----|--6----5----3---------|
--3----3----3---------|---8----10----10----8----|--6----6----3----3----|
--3----3----3---------|---9----------10---------|------------4---------|
--3-------------------|-------------------------|----------------------|
-----------------0----|-------------------------|----------------------|
--3-------------------|-------------------------|----------------------|

  Q     H.                E  E  E  E  E  E  E  E     E  E  E  E  E  E  E  E   
--3----10------------||---5--------0--1-----3-----|--1-----0-----------------|
---------------------||---6-----------3--3--3-----|--1-----1-----3-----------|
---------------------||*--7-----7--------------2--|-----0--------3-----2--0--|
---------------------||*--0--7--------------------|-----------3-----0--------|
---------------------||---------------------------|--------------------------|
---------------------||---------------------------|--------------3-----------|
  E  E  Q    Q    Q         H        Q    Q       Q    Q    Q    Q     
-----1------------5-----||--5-------------3----|------------5---------|
--1-----3----3----------||--6--------3----3----|--3--------------3----|
-----------------------*||--7-------------4----|-----------------3----|
-----------------------*||--0------------------|----------------------|
------------------------||---------------------|-------0--------------|
------------------------||---------------------|----------------------|
                                                            ^          
  Q    Q    Q    Q        Q     Q     Q    Q       Q    Q    Q    Q     
-------3--------------|--10----------------8----|--6----5----3---------|
--3----3----3---------|---8----10----10----8----|--6----6----3----3----|
--3----3----3---------|---9----------10---------|------------4---------|
--3-------------------|-------------------------|----------------------|
-----------------0----|-------------------------|----------------------|
--3-------------------|-------------------------|----------------------|

  Q     H.              E  E  E  E  E  E  E  E     E  E  E  E  E  E  E  E   
--3----10------------|--------------0-----5-----|--------0-----3-----------|
---------------------|--3--------3-----3--------|-----3-----3-----------3--|
---------------------|--------2-----------------|--2-----------------2-----|
---------------------|-----0-----------------0--|-----------------0--------|
---------------------|--------------------------|--------------------------|
---------------------|--------------------------|--------------------------|

             ^                                                                
  E  E  Q    Q    Q       E  E  E  E  E  E  E  E     E  E  E  E  E  E  E  E   
--0----------1----0----|--------------0-----5-----|--------0-----3-----------|
-----3-------1---------|--3--------3-----3--------|-----3-----3-----------3--|
-------------2---------|--2-----2-----------------|--2-----------------2-----|
--------0--------------|-----0-----------------0--|-----------------0--------|
-----------------------|--------------------------|--------------------------|
-----------------------|--------------------------|--------------------------|

             ^            ^                                            
  E  E  Q    Q    Q       Q    Q    Q     Q       Q    Q    Q    Q     
--0----------1----3----|--5--------------10----|------------8---------|
-----3-------1---------|--3----2----3----------|----------------------|
-------------2---------|--5----2----2----------|--6----7---------6----|
--------0--------------|-----------------------|--7----7---------7----|
-----------------------|-----------------------|----------------------|
-----------------------|-----------------------|----------------------|

            ^                                                         
  Q    Q    Q    Q       Q    Q    Q     Q       Q    Q    Q    Q     
------------1----0----|-----------------10----|------------8---------|
------------1---------|--3----2----3----------|----------------------|
--7---------2---------|--2--------------------|--6----7---------6----|
--7----0--------------|-----------------------|--7----7---------7----|
----------------------|-----------------------|----------------------|
----------------------|-----------------------|----------------------|

            ^            ^                                       
  Q    Q    Q    Q       H        H           W                  
------------1----3----|--5-----------------|--5----------------||
------------1----1----|--3--------3--------|-------------------||
--7---------2---------|--5-----------------|-------------------||
----------------------|--------------------|-------------------||
-------0--------------|--------------------|-------------------||
----------------------|--------------------|-------------------||