Login or Register to remove this ad. | Advertise Here

Face It Later (Final Fantasy XIII) Guitar Tab

Submitted: Dec 22, 2011 by Naen (Last updated: Feb 20, 2012)

5
Average: 5 (4 votes)
Download | Listen
Game: Final Fantasy XIII
Composer(s): Masashi Hamauzu
Style: Arrangement, Fingerstyle
Series: Final Fantasy

AutoScroll: Slow | Medium | Fast
                                    FACE IT LATER

Final Fantasy XIII
Masashi Hamauzu

Arr: NaeN

      
|----^10---|-^(10)---|--^3--|--3--3-1-|------1-|-(1)-3-----|------|---------|
|----^13---|-^(13)---|--^4--|-(4)-----|-1-^1---|-------4-3-|--^1--|--(1)----|
|----^12---|-^(12)---|--^2--|-(2)-----|---^0---|-----------|--^0--|--(0)----|
|----^13---|-^(13)---|------|---------|---^0---|-----------|--^2--|--(2)----|
|----------|---------|------|---------|--------|-----------|------|---------|
|----------|---------|------|---------|--------|-----------|--^0--|--(0)----|

|-10----6----|-1--------|--------|----------|
|------------|----------|--------|-1--------|
|-------0----|------3---|--(3)---|----------|
|-10---------|-0--------|--------|----------|
|------------|----------|--------|-0--------|
|------------|------3---|--(3)---|----------|

|-^3----10----|-(10)----11--8--6-|---^8----13----|
|-^3----------|------------------|---^6----------|
|-^3----------|------------------|---^6----------|
|-------------|--10--------------|---^6----------|
|-------------|------------------|---------------|
|-------------|------------------|---------------|

|----14-11-9-|--^11--|--(11)--|--3--|------|-4---------4-6-9----|
|------------|--^-8--|---(8)--|-----|--^4--|---6-4-2-4----------|
|-11---------|--^-8--|---(8)--|-----|--^3--|-------2------------|
|--9---------|--^-8--|---(8)--|-----|--^2--|-------2------------|
|------------|--^10--|--(10)--|-----|--^2--|--------------------|
|------------|-------|--------|-----|------|-------2------------|

**************************************************************

6 comments on Face It Later

Oh!

5

This is like the only track I really liked from that game. Shame its so short eh? thanks for tabbing it.

...

i´m agree, lovely melody but its so short...i will submit a updated version, with pdf and a new recording.

Good job

5

Good job

thankyou, but there is a

thankyou, but there is a mistake in the tab, this part

|----14-11-9-|
|------------|
|-11---------|
|--6---------|
|------------|
|------------|

here is no 6 but 9
|-11---------|
|--9---------|

i sutmited a updated version 4 days ago but it havent been posted yet
:(

Updated!

Updated!

:D

Thanks