Login or Register to remove this ad. | Advertise Here

Game Over (Final Fantasy XII) Guitar Tab

Submitted: Jan 30, 2012 by Naen

5
Average: 5 (1 vote)
Download | Listen
Game: Final Fantasy XII
Composer(s): Nobuo Uematsu, Hitoshi Sakimoto
Style: Arrangement, Fingerstyle
Series: Final Fantasy

AutoScroll: Slow | Medium | Fast
  GAME OVER

Hitoshi Sakimoto
Arr:NaeN
                                                                      
100


           ^                                                                    
     E  E  Q    E  E  Q       E  E  E  E  E  E  E  E     E  E  E  E  Q    Q     
E||--------1----0----------|-----1--0--------------1--|--0---------------------|
B||--------1----------3----|-----------1--------------|-----1--1--3--3----1----|
G||--------3----------3----|--------------0-----2-----|--------0-----0---------|
D||-----3--3-------3-------|-----2-----------2--------|------------------------|
A||--1----------1----------|--0-----------0-----------|------------------------|
E||------------------------|--------------------------|------------------------|


					 90             100 
                                                        ^                      
  E  E  E  E  E  E  E  E     E  E  E  E  E  E  E  E     E  E  E  E  H          
--------------------------|--------------------------|--3--------------------||
--3-----------1-----------|--3-----------1-----------|--3--------------------||
--3-----------2-----------|--3-----------2-----------|--3-----------0--------||
--------1-----------1-----|--3-----1-----3-----1-----|--------1--3-----------||
--1--1-----1--1--1-----1--|--1--1-----1--1--1-----1--|-----1-----------------||
--------------------------|--------------------------|-----------------------||


Copyright Square Enix