Login or Register to remove this ad. | Advertise Here

To Zanarkand (Final Fantasy X) Guitar Tab

Submitted: Dec 27, 2010 by Henz_MFlear (Last updated: Jan 05, 2011)

5
Average: 5 (8 votes)
Download | Listen
Game: Final Fantasy X
Composer(s): Nobuo Uematsu, Junya Nakano, Masashi Hamauzu
Style: Arrangement, Fingerstyle
Series: Final Fantasy

AutoScroll: Slow | Medium | Fast
e--0-------0-2-3---------------------0-2--
B--------0-----------------3-------3------
G------0-------------------------2--------
D--2-2-----0---------------0-0-4----------
A--------------3-------------------3---2--
E-----------------------------------------

e------------------------------------2-7-----
B--0---0---0---0---------3-------2-3---------
G--------------0---2-------4---4-------------
D------0---2-4-------------4-4---------------
A--3-----3-----------------------------------
E----3---------------------------------------

e--0---0---0---0---------3---------------------5-8--
B------------------3-------1-----------6---6-8------
G--------------------------------0-2-5---5----------
D------------0-2-----------3---3--------------------
A--0---2-0-3-----------------3----------------------
E----0----------------------------------------------

e--0-------0-2-3---2---0---2-----0-2----------------
B--------0-----------------3-------3---0-------0-3--
G--0-------0-2---0---------------0-----0---0-2------
D--2---2-4-----------4-2---0---0-2-0-----0----------
A----2---------3---------3---0-------3--------------
E--------------------------------------3------------

e--0-------0-2-3---2---3---5-----3-5---7------------
B--------0-------------------------------------0-3--
G--0-------0-2---0---------------------0---0-2------
D--2---2-4-----------4-2---0---0-2-4-----0----------
A----2---------3---------3---0-------0--------------
E---------------------------------------------------

e--0-------0-2-3---2---0---2-----0-2----------------
B--------0-----------------3-------3---0------------
G--0-------0-2---0---------------0-----0---0-2-0-2--
D--2---2-4-----------4-2---0---0-2-0-----0----------
A----2---------3---------3---0-------3--------------
E--------------------------------------3------------

e--------------------------3-----3-2---0-----------0-------0-3--
B--0---1---0---0-------3-------------3-----------1-------1------
G----0---0---0-0---2-----------2---------------0-------0--------
D----------------------------2---------------2-------2----------
A--3-----------3-----------0-------2---3---3--------------------
E----------------------------------------3----------------------

e----------0---0-------------------3---3-----------
B--------0-1-------3---1---0-------0-3-----------0-
G--2---2-----2-------0-2-------0-2-------------0---
D----2-------------3---------0---------2---2-4-----
A--0-------------3-------3---------------2---------
E--------------1-----------3-----------------------


e----------2---2-------------------0---0------
B--0-----------------------------0-1-------4--
G--------------------------2---2-----2--------
D----------0-2-4-------------2----------------
A--2---2-4-----------------0-----------2------
E----2----------------------------------------

e----------2---2---0---2---0-------5---5-----------
B--0-------3---0-------3---2-------5---------------
G------------------0-2-4---2-----------------1-2-4-
D--4-------0-4---0---------------------4---4-------
A--2---2-4-------------2---0---0-2-4-----4---------
E----2---------3-------------0---------------------

e--4---0---------------2---------------------------2--
B--2-------2---0-------3---------------0---------4----
G--------------0-----------2-------2-----------4------
D----------------------0---------4-2---4---1-4--------
A--4-----------------------4-----------2-2------------
E--------------3--------------------------------------

3 comments on To Zanarkand

perfect

5

perfect

nice

5

nice

Really good!

5

It was perfect! Thanks for tabbing such great song.