Login or Register to remove this ad. | Advertise Here

Thunder Plains (Final Fantasy X) Guitar Tab

Submitted: Jun 07, 2010 by Daugreano

5
Average: 5 (1 vote)
Download | Listen
Game: Final Fantasy X
Composer(s): Nobuo Uematsu, Junya Nakano, Masashi Hamauzu
Style: Transcription
Series: Final Fantasy

AutoScroll: Slow | Medium | Fast
Song: Thunder Plains
Game: Final Fantasy X
Composer(s: Nobuo Uematsu, Junya Nakano, Masashi Hamauzu
Tabbed by: Daugreano

Guitar:
              .           .                                     .                   .
   Q    Q    Q     E     Q     E   E   E   E   E     Q    Q    Q     E     E   E   Q     E   E   E
E|---------------------|---------------------------|---------------------|---------------------------|
B|---------------------|---------------------------|---------------------|---------------------------|
G|-0-------------------|---------------------------|-0-------------------|---------------------------|
D|------3----2-----0---|-2-----0-------0---2---3---|------3----2-----0---|-----0---2-----0---2---3---|
A|---------------------|-----------3---------------|---------------------|-3-------------------------|
E|---------------------|---------------------------|---------------------|---------------------------|
              .           .                                     .                   .
   Q    Q    Q     E     Q     E   E   E   E   E     Q    Q    Q     E     E   E   Q     E   E   E
E|---------------------|---------------------------|---------------------|---------------------------|
B|---------------------|---------------------------|---------------------|---------------------------|
G|-0-------------------|---------------------------|-0-------------------|---------------------------|
D|------3----1-----0---|-1-----0-------0---1---3---|------3----1-----0---|-----0---1-----0---1---3---|
A|---------------------|-----------3---------------|---------------------|-3-------------------------|
E|---------------------|---------------------------|---------------------|---------------------------|


Then Repeat...

1 comment on Thunder Plains

I found a fingerstyle version

I found a fingerstyle version :

http://www.youtube.com/watch?v=HjOyooPDu_0