Login or Register to remove this ad. | Advertise Here

Someday the Dream Will End (Final Fantasy X) Guitar Tab

Submitted: Oct 20, 2011 by BacardiBreezer

5
Average: 5 (1 vote)
Download | Listen
Game: Final Fantasy X
Composer(s): Nobuo Uematsu, Junya Nakano, Masashi Hamauzu
Style: Transcription
Series: Final Fantasy

AutoScroll: Slow | Medium | Fast
Someday the Dream Will End
Final Fantasy X
Composed by Nobuo Uematsu
Tabbed by Bacardibreezer
10/19/11

Lead

e|--------12--13--12~----13-15-17---18--17--15~-|--17---15--13--12~-|--13---12----------|
B|--15------------------------------------------|-------------------|-----------15-13~--|
G|----------------------------------------------|-------------------|-------------------|
D|----------------------------------------------|-------------------|-------------------|
A|----------------------------------------------|-------------------|-------------------|
E|----------------------------------------------|-------------------|-------------------|

e|--------12--13--12~----13-15-17---18--17--15~-|--17~----15--13--12--------------------|
B|--15------------------------------------------|---------------------13----14--15-15~--|
G|----------------------------------------------|---------------------------------------|
D|----------------------------------------------|---------------------------------------|
A|----------------------------------------------|---------------------------------------|
E|----------------------------------------------|---------------------------------------|

e|-------------------|--------------|-----------------------|      \
B|-------------------|------8--10~--|--8--------------------|       \
G|--7~----9--10--9~--|--10----------|--------10--9--7-------|        \
D|-------------------|--------------|------------------7~---|         \
A|-------------------|--------------|-----------------------|          \
E|-------------------|--------------|-----------------------|           \
                                                                           x2
e|-------------------|--------------|-----------------------|           /
B|-------------------|------8--10~--|--L-------------10~----|          /
G|--7~----9--10--9~--|--10----------|-----------7-----------|         /
D|-------------------|--------------|-----------------------|        /
A|-------------------|--------------|-----------------------|       /
E|-------------------|--------------|-----------------------|      /

e|------8------------------------------|--------8------------------|            \
B|--10-----8~-------10---8-------------|-8--10-----8~--------------|             \
G|-------------------------10-7-10~----|------------------10-9-7~--|              \
D|-------------------------------------|---------------------------|               \
A|-------------------------------------|---------------------------|                \
E|-------------------------------------|---------------------------|                 \
                                                                                        x2
e|---------------8----------------------------------------8--12--8----10~---|        /
B|-----8-----10-----8~-------10---8---------------8----10-------------------|       /
G|--10------------------------------10-7-10----10---------------------------|      /
D|--------------------------------------------------------------------------|     /
A|--------------------------------------------------------------------------|    /
E|--------------------------------------------------------------------------|   /