Login or Register to remove this ad. | Advertise Here

Someday the Dream Will End (Final Fantasy X) Guitar Tab

Submitted: Aug 23, 2010 by Daugreano (Last updated: Oct 24, 2013)

3.5
Average: 3.5 (2 votes)
Download | Listen
Game: Final Fantasy X
Composer(s): Nobuo Uematsu, Junya Nakano, Masashi Hamauzu
Style: Alternate picking, Fingerstyle, Transcription
Series: Final Fantasy

AutoScroll: Slow | Medium | Fast
Song: Someday The Dream Will End
Game: Final Fantasy X
Composer: Nobuo Uematsu
Tabbed by: Daugreano


Guitar: 

   Q    E   E   Q    E   E     Q    E   E   H       Q    E   E   H       Q    E   E   H
E|------0---1---0----1---3---|-5----6---5---3-----|-5----3---1---0-----|-1----0-------------|
B|-3-------------------------|--------------------|--------------------|----------3---1-----|
G|---------------------------|--------------------|--------------------|--------------------|
D|---------------------------|--------------------|--------------------|--------------------|
A|---------------------------|--------------------|--------------------|--------------------|
E|---------------------------|--------------------|--------------------|--------------------|

   Q    E   E   Q    E   E     Q    E   E   H       Q    E   E   Q    Q      E   E   H.
E|------0---1---0----1---3---|-5----6---5---3-----|-5----3---1---0---------|----------------|
B|-3-------------------------|--------------------|-------------------1----|-2---3---3------|
G|---------------------------|--------------------|------------------------|----------------|
D|---------------------------|--------------------|------------------------|----------------|
A|---------------------------|--------------------|------------------------|----------------|
E|---------------------------|--------------------|------------------------|----------------|

   W        H     Q    Q      H     Q    Q      H     H       Q    Q    Q    Q
E|--------|-----------------|-----------------|-------------|---------------------|
B|-L------|-----------------|-----------------|-------------|---------------------|
G|--------|-----------------|------------0----|-2-----0-----|---------------------|
D|--------|-0-----2----3----|-2-----3---------|-------------|-3----2----0---------|
A|--------|-----------------|-----------------|-------------|----------------0----|
E|--------|-----------------|-----------------|-------------|---------------------|

   H     Q    Q      H     Q    Q      W        H     H       H     Q    Q      H     Q    Q
E|-----------------|-----------------|--------|-------------|-------0----1----|-0-----1----3----|
B|-----------------|-----------------|--------|-------------|-3---------------|-----------------|
G|-----------------|------------0----|-2------|-------2-----|-----------------|-----------------|
D|-0-----2----3----|-2-----3---------|--------|-0-----------|-----------------|-----------------|
A|-----------------|-----------------|--------|-------------|-----------------|-----------------|
E|-----------------|-----------------|--------|-------------|-----------------|-----------------|

   H     H       Q    Q    Q    Q      H     Q    Q      H     Q    Q      W
E|-5-----3-----|-1----0--------------|-------0----1----|-0-----1----3----|-5------|
B|-------------|-----------3---------|-3---------------|-----------------|--------|
G|-------------|----------------2----|-----------------|-----------------|--------|
D|-------------|---------------------|-----------------|-----------------|--------|
A|-------------|---------------------|-----------------|-----------------|--------|
E|-------------|---------------------|-----------------|-----------------|--------|

   H     H       Q    Q    H       Q    E   E   E   Q    E     Q    Q    Q.    S  S
E|-------5-----|-----------------|---------------------------|-----------------------|
B|-3-----------|------1----------|---------------------------|------1----------------|
G|-------------|-2---------0-----|-2----0----------------0---|-2---------0-----------|
D|-------------|-----------------|----------3---0---3--------|-----------------3--2--|
A|-------------|-----------------|---------------------------|-----------------------|
E|-------------|-----------------|---------------------------|-----------------------|

   H.     E   E     Q    Q    H       Q    E   E   E   Q    E     Q    Q    Q    Q
E|----------------|-----------------|---------------------------|-----------0---------|
B|----------------|------1----------|---------------------------|------1---------1----|
G|------------0---|-2---------0-----|-2----0----------------0---|-2-------------------|
D|-0------3-------|-----------------|----------3---0---3--------|---------------------|
A|----------------|-----------------|---------------------------|---------------------|
E|----------------|-----------------|---------------------------|---------------------|

   W        Q    Q    H       Q    E   E   E   Q    E     Q    Q    Q.    S  S    H.     E   E
E|--------|-----------------|---------------------------|-----------------------|----------------|
B|-3------|------1----------|---------------------------|------1----------------|----------------|
G|--------|-2---------0-----|-2----0----------------0---|-2---------0-----------|------------0---|
D|--------|-----------------|----------3---0---3--------|-----------------3--2--|-0------3-------|
A|--------|-----------------|---------------------------|-----------------------|----------------|
E|--------|-----------------|---------------------------|-----------------------|----------------|

   Q    Q    H       Q    E   E   E   Q    E     Q    Q    Q    Q      W
E|-----------------|---------------------------|-----------0---------|--------|
B|------1----------|---------------------------|------1---------1----|-3------|
G|-2---------0-----|-2----0----------------0---|-2-------------------|--------|
D|-----------------|----------3---0---3--------|---------------------|--------|
A|-----------------|---------------------------|---------------------|--------|
E|-----------------|---------------------------|---------------------|--------|

Then Repeat...