Login or Register to remove this ad. | Advertise Here

Sky Theme (Final Fantasy X) Guitar Tab

Submitted: Jul 31, 2009 by Lost Melodies (Last updated: Oct 04, 2009)

5
Average: 5 (5 votes)
Download | Listen
Game: Final Fantasy X
Composer(s): Nobuo Uematsu, Junya Nakano, Masashi Hamauzu
Style: Arrangement, Fingerstyle
Series: Final Fantasy

This song is also called Tidus and Yuna's Theme

AutoScroll: Slow | Medium | Fast
                            Tidus and Yuna's Theme                              
                                 (Sky Theme)
                              ~Final Fantasy X~
                                

Arranged by Lost Melodies                          Music by Nobuo Uematsu



       Q    Q        E   E  E   E  E  E  Q       E  E  E  E  E  E   Q     
D#||-------------|----------------------------|--------------------------|
A#||-------------|--10------9--10--9----------|--7--------7--5-----10----|
F#||--------9----|-----------------9-----9----|--7-----7-----6-----------|
C#||--11---------|------11--L---------9--L----|-----7--L--------7--------|
G#||-------------|---9-------------7----------|--5-----------4------7----|
D#||-------------|----------------------------|--------------------------|


                    ^                                                   
  E  E  E  E  E  E  Q       W                   E  E  E  E  E  E  Q     
--------------------0----|--L----------------|-------------------------|
--3-----L--2--3-----3----|--L----------------|--------2--------2--L----|
--4-----2-----------2----|--L----------------|--------4--2--4----------|
-----4--------------4----|--L----------------|-----2-------------------|
--2--------------2-------|-------------------|--0----------------------|
--------------0----------|-------------------|-------------------------|


                                     ^            
  E  E  E  E  Q    E  E     E  E  E  E  H         
--------------0----------|-----------------------|
--------2--5--2----------|--0--------5--L--------|
--4--2--4----------4--2--|--------6--6--L--------|
-----2-------------------|-----6-----6--L--------|
--0----------------------|--4--------------------|
-------------------------|-----------------------|


     NH            NH                                      
     E   E   E     E  H           E  E  E  E  E  E  E  E   
--<>12-------------------------|--------------------------|
----------------<>12--L--------|--------3--2--2-----------|
-------------------9--L--------|--------4--------4--4-----|
------------11-----------------|-----4-----------------4--|
--------11---------------------|--2-----------------------|
-----9-------------------------|--------------------------|


  E  E  E  E  E  E  E  E     E  E  E  E  E  Q.        E  E  E  E  H         
--------------------------|------------------------|-----------------------|
--------2--3--------2--3--|--2---------------------|-----------0--L--------|
--2-----------2--4--------|--------2--4--L--L------|--------1--------------|
-----4--------4-----------|------------------------|-----------------------|
--2-----------------------|-----2------------------|-----2-----------------|
--------------------------|--0---------------------|--0--------------------|


  E  E  E  E  E  E  E  E     E  E  E  E  Q    E  E     E  E  E  E  H         
--------------------------|-------------------------|-----------------------|
--------2--------2--L-----|--------2--5--2----------|--0--------5--L--------|
--------4--2--4-----------|--4--2--4----------4--2--|--------6--6--L--------|
-----2-----2-----------2--|-----2-------------------|-----6-----------------|
--0-----------------------|--0----------------------|--4--------------------|
--------------------------|-------------------------|-----------------------|


     NH            NH                                      
     E   E   E     E  H           E  E  E  E  E  E  E  E   
--<>12-------------------------|--------------------------|
----------------<>12--L--------|--------3--2--2-----------|
-------------------9--L--------|--------2--------4--4-----|
------------11-----------------|-----4-----------------4--|
--------11---------------------|--2-----------------------|
-----9-------------------------|--------------------------|


  E  E  E  E  E  E  E  E     E  E  E  E  E  Q.        E  E  E  E  Q    E  E   
--------------------------|------------------------|--------------0----------|
--------2--3--------2--3--|--2---------------------|-----------0-------------|
--2-----------2--4--------|--------2--4--L--L------|--------1----------2--1--|
-----4--------4-----------|------------------------|-------------------------|
--2-----------------------|-----2------------------|-----2-------------------|
--------------------------|--0---------------------|--0----------------------|


  ^                                                                            
  E  E  E  E  E  E  E  E     E  E  E  Q    Q    E     E  E  E  E  E  E  E  E   
--------------------------|--2--------0----L-------|--------------------------|
--------------2--------2--|--------2--2------------|--------2--3--5--3--2-----|
--2--------2-----1--2-----|-----2------------------|--------2-----------------|
--4-----4-----4-----------|------------------------|-----4-----------------4--|
--4--4--------------------|--4------------------2--|--1-----------------------|
--2-----------------------|------------------------|--------------------------|


  E  E  E  E  H           E  E  E  Q    E  E  E     E  E  E  E  Q.     E   
-----------------------|-------------------------|--2---------------------|
-----3--2--3--L--------|----------------------2--|--------2--5--L------2--|
-----------------------|-----------2----1--2-----|-----2------------------|
--L--4--L--------------|--------4--4-------------|-----------2--L---------|
--2--------------------|-----4-------------------|--4---------------------|
-----------------------|--2----------------------|------------------------|


  E  S S E  E  H           E  E  E  E  E  E  E  E   
------------2-----------|-----------------2--5-----|
--3----5-L--------------|--3-----------5--------3--|
-----2---------2--------|-----------2--L-----------|
--0------4--------------|--------4-----------------|
------------------------|-----2--------------------|
------------------------|--0-----------------------|


             |----3----|                                
  E  E  Q    Q    Q    Q       E  E  E  E  E  E  E  E   
--0-------------------------|--0--------------2-----0--|
------------------0----2----|-----------0--2-----2-----|
--------1----2--------------|-----2--2-----2-----------|
----------------------------|--------------------------|
-----2----------------------|--0-----------------------|
--0-------------------------|--------------------------|


  E  E  E  E  Q    E  E     E  E  E  E  E  E  E  E     E  E  E  E  E  E  E  E   
--L----------------------|--2--------2--0-----------|--------------------------|
-----------5--L-------5--|--------3--------0--2--3--|--L--------0--------5-----|
--------6----------6-----|-----2--------------------|--------2-----6-----------|
-----6-------------------|--0-----------2-----------|-----2--------7-----6-----|
--4----------------------|--------------------------|--0--------------7-----7--|
-------------------------|--------------------------|--------------5-----4-----|


  E  E  E  E  E  E  Q       E  E  E  E  E  E  Q       E  E  E  E  Q    E  E   
--5-----------4-----0----|--2--------2--0-----0----|----------------------2--|
-----------0--------0----|--------3-----------2----|--3--------2--3----5-----|
-----------------1-------|-----2-------------------|--------4----------------|
--------4----------------|--0--------------4-------|-----4-------------------|
-----4-------------------|--------------2----------|--2----------------------|
--2-----------0----------|-------------------------|-------------------------|


                          ^                                                  
  E  E  E  E  H           E  E  E  E  E  E  E  E     E  E  E  E  Q    E  E   
--0--------------------|--0--------------------0--|--L-----------4----------|
-----------------------|--2--------0-----0--2-----|-----------5----------5--|
-----------2--1--------|--2-----2-----2-----------|--------6----------6-----|
--------2--------------|-----2--------------------|-----6-------------------|
-----2-----------------|--0-----------------------|--4----------------------|
--0--------------------|--------------------------|-------------------------|


  E  E  E  E  E  E  E  E     E  E  E  E  E  E  Q       E  E  E  E  E  E  E  E   
--2--------2--0-----------|-------------------------|--5-----------------------|
--------3-----------0--2--|--L--------0--------5----|-----------0--9-----5-----|
-----2-----------1--------|--------2-----6----------|--------------9-----6-----|
--0-----------2-----------|-----2--------7-----6----|--------4--------9-----6--|
--------------------------|--0--------------7--7----|-----4--------7-----4-----|
--------------------------|--------------5-----4----|--2-----------------------|


                                                                  ^         
  E  E  Q    E  E  Q       E  E  E  E  E  E  E  E     E  E  E  E  H         
--2----------5-----5----|-----------------2--5--9--|-----------------------|
--3-----3----------5----|--3--------2--3-----------|--3--------3--5--------|
-----2----------2--6----|--------2-----------------|--------2-----2--------|
--0---------------------|-----4--------------------|-----4--------4--------|
-------------4-----7----|--2-----------------------|-----------------------|
------------------------|--------------------------|--0-----------0--------|


   E   E   E   E  E  E  Q       E  E  E  E  E  E  E  E     E  E  E  E   
------------------4----------|--2--------2--0-----5-----|--------------|
--10----------10--------5----|--------5--------------2--|--3-----2--3--|
----------11-----------------|-----2-----------2--L-----|-----2--L-----|
------11---L---------6--L----|--0-----------------------|--------------|
---9--------------4----------|--------------4-----------|--2-----------|
-----------------------------|--------------------------|--------------|


  ^                          ^                  
  H           E  E  E  E     W                  
--0--------|--5-----------|--0----------------||
--0--------|--------3-----|--2----------------||
--1--------|--------2--4--|--4----------------||
--2--------|-----2--------|--2----------------||
-----------|--0-----------|--0----------------||
-----------|--------------|-------------------||

2 comments on Sky Theme

Very nice arrangement! :O

Very nice arrangement! :O

I've never heard of it but

5

I've never heard of it but it's indeed very beautiful