Login or Register to remove this ad. | Advertise Here

The Silence Before The Storm (Quartet) (Final Fantasy X) Bass/Guitar Tab

Submitted: Jun 14, 2009 by TheDoomOfAllFires (Last updated: Apr 04, 2010)

5
Average: 5 (3 votes)
Download | Listen
Game: Final Fantasy X
Composer(s): Nobuo Uematsu, Junya Nakano, Masashi Hamauzu
Style: 2 or more instruments, Arrangement, Fingerstyle
Series: Final Fantasy

AutoScroll: Slow | Medium | Fast
Final Fantasy X - the Silence Before The Storm
Arranged by TheDoomOfAllFires; 06/14/2009

BPM=85

Acoustic guitar #1 : Drop-D tuning, Capo. 1
Acoustic guitar #2 : Drop-D tuning, Capo. 1
Electric guitar : Standard tuning
Bass : Standard tuning


Hope you like it ! ^^


Acoustic Guitar #1 (Rhythm) :

      E  E  Q    E  E     E  E  Q    E  E     E  E  Q    E  E   
E||---5----------5-----|--5----------5-----|--5----------5-----|
B||------5----------5--|-----5----------5--|-----7----------7--|
G||*--------5----------|--------5----------|--------7----------|
D||*-------------------|-------------------|-------------------|
A||---0----------------|-------------------|-------------------|
D||--------------------|-------------------|--0----------------|


  E  E  Q    E  E       E  E  Q    E  E     E  E  Q    E  E   
--5----------5------||--5----------5-----|--5----------5-----|
-----7----------7---||-----5----------5--|-----5----------5--|
--------7----------*||--------5----------|--------5----------|
-------------------*||-------------------|-------------------|
--------------------||--0----------------|-------------------|
--------------------||-------------------|-------------------|


  E  E  Q    E  E     E  E  Q    E  E     E  E  Q    E  E     E  E  Q    E  E   
--5----------5-----|--5----------5-----|--5----------5-----|--5----------5-----|
-----7----------7--|-----7----------7--|-----5----------5--|-----5----------5--|
--------7----------|--------7----------|--------5----------|--------5----------|
-------------------|-------------------|-------------------|-------------------|
-------------------|-------------------|--0----------------|-------------------|
--0----------------|-------------------|-------------------|-------------------|


  E  E  Q    E  E     E  E  Q    E  E     E  E  E  E  E  E   
--5----------5-----|--5----------5-----|--2-----------2-----|
-----7----------7--|-----7----------7--|-----3-----3-----3--|
--------7----------|--------7----------|--------4-----------|
-------------------|-------------------|--------------------|
-------------------|-------------------|--2-----------------|
--0----------------|-------------------|--------------------|


  E  E  E  E  E  E     E  E  E  E  E  E     E  E  E  E  E  E   
--2-----------2-----|--------------3-----|--3-----------3-----|
-----3-----3-----3--|-----5-----5-----5--|-----5-----5-----5--|
--------4-----------|--------5-----------|--------5-----------|
--------------------|--------------------|--------------------|
--------------------|--3-----------------|--------------------|
--------------------|--------------------|--------------------|


  E  E  E  E  E  E     E  E  E  E  E  E     E  E  E  E  E  E   
--4-----------4-----|--4-----------4-----|--2-----------2-----|
-----4-----4-----4--|-----4-----4-----4--|-----2-----2-----2--|
--------4-----------|--------4-----------|--------2-----------|
--------------------|--------------------|--------------------|
--------------------|--------------------|--------------------|
--6-----------------|--------------------|--4-----------------|


  E  E  E  E  E  E       E  E  Q    E  E     E  E  Q    E  E   
--2-----------2-----||---5----------5-----|--5----------5-----|
-----2-----2-----2--||------5----------5--|-----5----------5--|
--------2-----------||*--------5----------|--------5----------|
--------------------||*-------------------|-------------------|
--------------------||---0----------------|-------------------|
--------------------||--------------------|-------------------|


  E  E  Q    E  E     E  E  Q    E  E     E  E  Q    E  E     E  E  Q    E  E   
--5----------5-----|--5----------5-----|--5----------5-----|--5----------5-----|
-----7----------7--|-----7----------7--|-----5----------5--|-----5----------5--|
--------7----------|--------7----------|--------5----------|--------5----------|
-------------------|-------------------|-------------------|-------------------|
-------------------|-------------------|--0----------------|-------------------|
--0----------------|-------------------|-------------------|-------------------|


  E  E  E  E  E  E     E  E  E  E  E  E       E  E  Q    E  E   
--5-----------5-----|--5-----------5------||--5----------5-----|
-----3-----3-----3--|-----3-----3-----3---||-----7----------7--|
--------6-----------|--------6-----------*||--------7----------|
--------------------|--------------------*||-------------------|
--------------------|---------------------||-------------------|
--------------------|---------------------||-------------------|


  E  E  E  E  E  E     E  E  E  E  E  E     E  E  E  E  E  E   
--5-----------5-----|--3-----------3-----|--5-----------5-----|
-----6-----6-----6--|-----5-----5-----5--|-----5-----5-----5--|
--------5-----------|--------4-----------|--------6-----------|
--------------------|--------------------|--------------------|
--------------------|--------------------|--------------------|
--------------------|--------------------|--------------------|


  E  E  E  E  E  E     E  E  E  E  E  E     E  E  E  E  E  E   
--5-----------5-----|--5-----------5-----|--5-----------5-----|
-----5-----5-----5--|-----5-----5-----5--|-----5-----5-----5--|
--------6-----------|--------6-----------|--------6-----------|
--------------------|--------------------|--------------------|
--------------------|--------------------|--------------------|
--------------------|--------------------|--------------------|


  E  E  E  E  E  E     E  E  E  E  E  E     E  E  E  E  E  E   
--5-----------5-----|--5-----------5-----|--3-----------3-----|
-----5-----5-----5--|-----5-----5-----5--|-----5-----5-----5--|
--------6-----------|--------6-----------|--------4-----------|
--------------------|--------------------|--------------------|
--------------------|--------------------|--------------------|
--------------------|--------------------|--------------------|


  E  E  E  E  E  E     E  E  E  E  E  E     E  E  E  E  E  E   
--3-----------3-----|--5-----------5-----|--5-----------5-----|
-----5-----5-----5--|-----5-----5-----5--|-----5-----5-----5--|
--------4-----------|--------6-----------|--------6-----------|
--------------------|--------------------|--------------------|
--------------------|--------------------|--------------------|
--------------------|--------------------|--------------------|


  E  E  E  E  E  E     E  E  E  E  E  E     E  E  E  E  E  E   
--3-----------3-----|--3-----------3-----|--5-----------5-----|
-----5-----5-----5--|-----5-----5-----5--|-----5-----5-----5--|
--------4-----------|--------4-----------|--------6-----------|
--------------------|--------------------|--------------------|
--------------------|--------------------|--------------------|
--------------------|--------------------|--------------------|


  E  E  E  E  E  E     E  E  E  E  E  E     E  E  E  E  E  E   
--5-----------5-----|--3-----------3-----|--3-----------3-----|
-----5-----5-----5--|-----5-----5-----5--|-----5-----5-----5--|
--------6-----------|--------4-----------|--------4-----------|
--------------------|--------------------|--------------------|
--------------------|--------------------|--------------------|
--------------------|--------------------|--------------------|


  E  E  E  E  E  E     E  E  E  E  E  E     E  E  E  E  E  E   
--3-----------3-----|--3-----------3-----|--5-----------5-----|
-----5-----5-----5--|-----5-----5-----5--|-----6-----6-----6--|
--------5-----------|--------5-----------|--------5-----------|
--------------------|--------------------|--------------------|
--------------------|--------------------|--------------------|
--------------------|--------------------|--------------------|


  E  E  E  E  E  E     E  E  E  E  E  E     E  E  E  E  E  E   
--5-----------5-----|--4-----------4-----|--4-----------4-----|
-----6-----6-----6--|-----5-----5-----5--|-----5-----5-----5--|
--------5-----------|--------4-----------|--------4-----------|
--------------------|--------------------|--------------------|
--------------------|--------------------|--------------------|
--------------------|--------------------|--------------------|


  E  E  E  E  E  E     E  E  E  E  E  E       E  E  Q    E  E   
--4-----------4-----|--4-----------4-----||---5----------5-----|
-----5-----5-----5--|-----5-----5-----5--||------5----------5--|
--------4-----------|--------4-----------||*--------5----------|
--------------------|--------------------||*-------------------|
--------------------|--------------------||---0----------------|
--------------------|--------------------||--------------------|


  E  E  Q    E  E     E  E  Q    E  E     E  E  Q    E  E     E  E  Q    E  E   
--5----------5-----|--5----------5-----|--5----------5-----|--5----------5-----|
-----5----------5--|-----7----------7--|-----7----------7--|-----5----------5--|
--------5----------|--------7----------|--------7----------|--------5----------|
-------------------|-------------------|-------------------|-------------------|
-------------------|-------------------|-------------------|--0----------------|
-------------------|--0----------------|-------------------|-------------------|


  E  E  Q    E  E     E  E  E  E  E  E     E  E  E  E  E  E     
--5----------5-----|--5-----------5-----|--5-----------5------||
-----5----------5--|-----3-----3-----3--|-----3-----3-----3---||
--------5----------|--------6-----------|--------6-----------*||
-------------------|--------------------|--------------------*||
-------------------|--------------------|---------------------||
-------------------|--------------------|---------------------||


  E  E  Q    E  E     E  E  E  E  E  E     E  E  E  E  E  E   
--5----------5-----|--5-----------5-----|--3-----------3-----|
-----7----------7--|-----6-----6-----6--|-----5-----5-----5--|
--------7----------|--------5-----------|--------4-----------|
-------------------|--------------------|--------------------|
-------------------|--------------------|--------------------|
-------------------|--------------------|--------------------|


  E  E  E  E  E  E     E  E  E  E  E  E     E  E  E  E  E  E   
--5-----------5-----|--5-----------5-----|--5-----------5-----|
-----5-----5-----5--|-----5-----5-----5--|-----5-----5-----5--|
--------6-----------|--------6-----------|--------6-----------|
--------------------|--------------------|--------------------|
--------------------|--------------------|--------------------|
--------------------|--------------------|--------------------|


  E  E  E  E  E  E     E  E  E  E  E  E     E  E  E  E  E  E   
--5-----------5-----|--5-----------5-----|--5-----------5-----|
-----5-----5-----5--|-----5-----5-----5--|-----5-----5-----5--|
--------6-----------|--------6-----------|--------6-----------|
--------------------|--------------------|--------------------|
--------------------|--------------------|--------------------|
--------------------|--------------------|--------------------|


  E  E  E  E  E  E     E  E  E  E  E  E     E  E  E  E  E  E   
--3-----------3-----|--3-----------3-----|--5-----------5-----|
-----5-----5-----5--|-----5-----5-----5--|-----5-----5-----5--|
--------4-----------|--------4-----------|--------6-----------|
--------------------|--------------------|--------------------|
--------------------|--------------------|--------------------|
--------------------|--------------------|--------------------|


  E  E  E  E  E  E     E  E  E  E  E  E     E  E  E  E  E  E   
--5-----------5-----|--3-----------3-----|--3-----------3-----|
-----5-----5-----5--|-----5-----5-----5--|-----5-----5-----5--|
--------6-----------|--------4-----------|--------4-----------|
--------------------|--------------------|--------------------|
--------------------|--------------------|--------------------|
--------------------|--------------------|--------------------|


  E  E  E  E  E  E     E  E  E  E  E  E     E  E  E  E  E  E   
--5-----------5-----|--5-----------5-----|--3-----------3-----|
-----5-----5-----5--|-----5-----5-----5--|-----5-----5-----5--|
--------6-----------|--------6-----------|--------4-----------|
--------------------|--------------------|--------------------|
--------------------|--------------------|--------------------|
--------------------|--------------------|--------------------|


  E  E  E  E  E  E     E  E  E  E  E  E     E  E  E  E  E  E   
--3-----------3-----|--3-----------3-----|--3-----------3-----|
-----5-----5-----5--|-----5-----5-----5--|-----5-----5-----5--|
--------4-----------|--------5-----------|--------5-----------|
--------------------|--------------------|--------------------|
--------------------|--------------------|--------------------|
--------------------|--------------------|--------------------|


  E  E  E  E  E  E     E  E  E  E  E  E     E  E  E  E  E  E   
--5-----------5-----|--5-----------5-----|--4-----------4-----|
-----6-----6-----6--|-----6-----6-----6--|-----5-----5-----5--|
--------5-----------|--------5-----------|--------4-----------|
--------------------|--------------------|--------------------|
--------------------|--------------------|--------------------|
--------------------|--------------------|--------------------|


  E  E  E  E  E  E     E  E  E  E  E  E     E  E  E  E  E  E     H.             
--4-----------4-----|--4-----------4-----|--4-----------4-----|--5------------||
-----5-----5-----5--|-----5-----5-----5--|-----5-----5-----5--|---------------||
--------4-----------|--------4-----------|--------4-----------|---------------||
--------------------|--------------------|--------------------|---------------||
--------------------|--------------------|--------------------|---------------||
--------------------|--------------------|--------------------|---------------||


_______________________



Acoustic guitar #2 (Rhythm) :

      E  E  E  E  E  E     E  E  E  E  E  E     E  E  E  E  E  E   
E||------------0--------|-----------0--------|--------------------|
B||---------------------|--3-----------------|-----------3--------|
G||*--2--0--2-----2--0--|-----2--0-----2--0--|--------2-----2-----|
D||*--------------------|--------------------|-----4-----------4--|
A||---0-----------------|--------------------|--------------------|
D||---------------------|--------------------|--0-----------------|


  E  E  E  E  E  E       E  E  E  E  E  E     E  E  E  E  E  E   
--0------------------||-----------0--------|-----------0--------|
-----------3---------||--------------------|--3-----------------|
-----2--------2-----*||--2--0--2-----2--0--|-----2--0-----2--0--|
--------4--------4--*||--------------------|--------------------|
---------------------||--0-----------------|--------------------|
---------------------||--------------------|--------------------|


  E  E  E  E  E  E     E  E  E  E  E  E     E  E  E  E  E  E   
--------------------|--0-----------------|-----------0--------|
-----------3--------|-----------3--------|--------------------|
--------2-----2-----|-----2--------2-----|--2--0--2-----2--0--|
-----4-----------4--|--------4--------4--|--------------------|
--------------------|--------------------|--0-----------------|
--0-----------------|--------------------|--------------------|


  E  E  E  E  E  E     E  E  E  E  E  E     E  E  E  E  E  E   
-----------0--------|--------------------|--0-----------------|
--3-----------------|-----------3--------|-----------3--------|
-----2--0-----2--0--|--------2-----2-----|-----2--------2-----|
--------------------|-----4-----------4--|--------4--------4--|
--------------------|--------------------|--------------------|
--------------------|--0-----------------|--------------------|


  E  E  E  E  E  E     E  E  E  E  E  E     E  E  E  E  E  E   
--------------------|--------------------|-----------0--------|
--------2--3--2-----|--3--2-----3--2-----|--------------------|
--------------------|--------------------|-----0--2-----2--0--|
-----4-----------4--|--------4--------4--|--------------------|
--2-----------------|--------------------|--3-----------------|
--------------------|--------------------|--------------------|


  E  E  E  E  E  E     E  E  E  E  E  E     E  E  E  E  E  E   
--0--------0--------|--------------------|--------------------|
--------------------|-----------4--------|--4--------4--------|
-----2--0-----2--0--|--------4-----4-----|-----4--------4-----|
--------------------|-----6-----------6--|--------6--------6--|
--------------------|--------------------|--------------------|
--------------------|--6-----------------|--------------------|


  E  E  E  E  E  E     E  E  E  E  E  E       E  E  E  E  E  E   
--------------------|--------------------||------------0--------|
-----------2--------|--2--------2--------||---------------------|
--------2-----2-----|-----2--------2-----||*--2--0--2-----2--0--|
-----4-----------4--|--------4--------4--||*--------------------|
--------------------|--------------------||---0-----------------|
--4-----------------|--------------------||---------------------|


  E  E  E  E  E  E     E  E  E  E  E  E     E  E  E  E  E  E   
-----------0--------|--------------------|--0-----------------|
--3-----------------|-----------3--------|-----------3--------|
-----2--0-----2--0--|--------2-----2-----|-----2--------2-----|
--------------------|-----4-----------4--|--------4--------4--|
--------------------|--------------------|--------------------|
--------------------|--0-----------------|--------------------|


  E  E  E  E  E  E     E  E  E  E  E  E     E  E  E  E  E  E   
-----------0--------|-----------0--------|--------------------|
--------------------|--3-----------------|--------2--3--2-----|
--2--0--2-----2--0--|-----2--0-----2--0--|--------------------|
--------------------|--------------------|-----4-----------4--|
--0-----------------|--------------------|--2-----------------|
--------------------|--------------------|--------------------|


  E  E  E  E  E  E       E  E  E  E  E  E     E  E  E  E  E  E   
---------------------||--0-----------------|--------------------|
--3--2-----3--2------||-----------3--------|--------------------|
--------------------*||-----2--------2-----|-----------2--------|
--------4--------4--*||--------4--------4--|--------3-----3-----|
---------------------||--------------------|-----3-----------3--|
---------------------||--------------------|--3-----------------|


  E  E  E  E  E  E     E  E  E  E  E  E     E  E  E  E  E  E   
--------------------|--------------------|--------------------|
--------------------|--------2--3--2-----|--0--------2--------|
-----------0--------|-----------------2--|-----1--------2-----|
--------2-----2-----|-----2--------------|--------2--------2--|
-----2-----------2--|--0-----------------|--------------------|
--2-----------------|--------------------|--------------------|


  E  E  E  E  E  E     E  E  E  E  E  E     E  E  E  E  E  E   
--------------------|--------------------|--------------------|
--------2--3--2-----|--0--------2--------|--------2--3--2-----|
-----------------2--|-----1--------2-----|-----------------2--|
-----2--------------|--------2--------2--|-----2--------------|
--0-----------------|--------------------|--0-----------------|
--------------------|--------------------|--------------------|


  E  E  E  E  E  E     E  E  E  E  E  E     E  E  E  E  E  E   
--------------------|-----------0--------|--0--------0--------|
--3--2-----3--2-----|--------------0-----|-----0--------0-----|
--------2--------2--|--------0--------0--|--------0--------0--|
--------------------|--------------------|--------------------|
--------------------|-----2--------------|--------------------|
--------------------|--2-----------------|--------------------|


  E  E  E  E  E  E     E  E  E  E  E  E     E  E  E  E  E  E   
--------------------|--------------------|-----------0--------|
--------2--3--2-----|--3--2-----3--2-----|--------------0-----|
-----------------2--|--------2--------2--|--------0--------0--|
-----2--------------|--------------------|--------------------|
--0-----------------|--------------------|-----2--------------|
--------------------|--------------------|--2-----------------|


  E  E  E  E  E  E     E  E  E  E  E  E     E  E  E  E  E  E   
--0--------0--------|--------------------|--------------------|
-----0--------0-----|--------2--3--2-----|--3--2-----3--2-----|
--------0--------0--|-----------------2--|--------2--------2--|
--------------------|-----2--------------|--------------------|
--------------------|--0-----------------|--------------------|
--------------------|--------------------|--------------------|


  E  E  E  E  E  E     E  E  E  E  E  E     E  E  E  E  E  E   
-----------0--------|--0--------0--------|--------------------|
--------------0-----|-----0--------0-----|-----------1--------|
--------0--------0--|--------0--------0--|--------0-----0-----|
--------------------|--------------------|-----2-----------2--|
-----2--------------|--------------------|--3-----------------|
--2-----------------|--------------------|--------------------|


  E  E  E  E  E  E     E  E  E  E  E  E     E  E  E  E  E  E   
--------------------|-----------1--------|--1--------1--------|
--1--------1--------|--------------------|--------------------|
-----0--------0-----|--------2-----2-----|-----2--------2-----|
--------2--------2--|-----3-----------3--|--------3--------3--|
--------------------|--------------------|--------------------|
--------------------|--3-----------------|--------------------|


  E  E  E  E  E  E     E  E  E  E  E  E     E  E  E  E  E  E   
-----------2--------|--2--------2--------|-----------2--------|
--------0-----0-----|-----0--------0-----|--------0-----0-----|
-----1-----------1--|--------1--------1--|-----1-----------1--|
--------------------|--------------------|--------------------|
--------------------|--------------------|--------------------|
--2-----------------|--------------------|--2-----------------|


  E  E  E  E  E  E       E  E  E  E  E  E     E  E  E  E  E  E   
--2--------2--------||------------0--------|-----------0--------|
-----0--------0-----||---------------------|--3-----------------|
--------1--------1--||*--2--0--2-----2--0--|-----2--0-----2--0--|
--------------------||*--------------------|--------------------|
--------------------||---0-----------------|--------------------|
--------------------||---------------------|--------------------|


  E  E  E  E  E  E     E  E  E  E  E  E     E  E  E  E  E  E   
--------------------|--0-----------------|-----------0--------|
-----------3--------|-----------3--------|--------------------|
--------2-----2-----|-----2--------2-----|--2--0--2-----2--0--|
-----4-----------4--|--------4--------4--|--------------------|
--------------------|--------------------|--0-----------------|
--0-----------------|--------------------|--------------------|


  E  E  E  E  E  E     E  E  E  E  E  E     E  E  E  E  E  E     
-----------0--------|--------------------|---------------------||
--3-----------------|--------2--3--2-----|--3--2-----3--2------||
-----2--0-----2--0--|--------------------|--------------------*||
--------------------|-----4-----------4--|--------4--------4--*||
--------------------|--2-----------------|---------------------||
--------------------|--------------------|---------------------||


  E  E  E  E  E  E     E  E  E  E  E  E     E  E  E  E  E  E   
--0-----------------|--------------------|--------------------|
-----------3--------|--------------------|--------------------|
-----2--------2-----|-----------2--------|-----------0--------|
--------4--------4--|--------3-----3-----|--------2-----2-----|
--------------------|-----3-----------3--|-----2-----------2--|
--------------------|--3-----------------|--2-----------------|


  E  E  E  E  E  E     E  E  E  E  E  E     E  E  E  E  E  E   
--------------------|--------------------|--------------------|
--------2--3--2-----|--0--------2--------|--------2--3--2-----|
-----------------2--|-----1--------2-----|-----------------2--|
-----2--------------|--------2--------2--|-----2--------------|
--0-----------------|--------------------|--0-----------------|
--------------------|--------------------|--------------------|


  E  E  E  E  E  E     E  E  E  E  E  E     E  E  E  E  E  E   
--------------------|--------------------|--------------------|
--0--------2--------|--------2--3--2-----|--3--2-----3--2-----|
-----1--------2-----|-----------------2--|--------2--------2--|
--------2--------2--|-----2--------------|--------------------|
--------------------|--0-----------------|--------------------|
--------------------|--------------------|--------------------|


  E  E  E  E  E  E     E  E  E  E  E  E     E  E  E  E  E  E   
-----------0--------|--0--------0--------|--------------------|
--------------0-----|-----0--------0-----|--------2--3--2-----|
--------0--------0--|--------0--------0--|-----------------2--|
--------------------|--------------------|-----2--------------|
-----2--------------|--------------------|--0-----------------|
--2-----------------|--------------------|--------------------|


  E  E  E  E  E  E     E  E  E  E  E  E     E  E  E  E  E  E   
--------------------|-----------0--------|--0--------0--------|
--3--2-----3--2-----|--------------0-----|-----0--------0-----|
--------2--------2--|--------0--------0--|--------0--------0--|
--------------------|--------------------|--------------------|
--------------------|-----2--------------|--------------------|
--------------------|--2-----------------|--------------------|


  E  E  E  E  E  E     E  E  E  E  E  E     E  E  E  E  E  E   
--------------------|--------------------|-----------0--------|
--------2--3--2-----|--3--2-----3--2-----|--------------0-----|
-----------------2--|--------2--------2--|--------0--------0--|
-----2--------------|--------------------|--------------------|
--0-----------------|--------------------|-----2--------------|
--------------------|--------------------|--2-----------------|


  E  E  E  E  E  E     E  E  E  E  E  E     E  E  E  E  E  E   
--0--------0--------|--------------------|--------------------|
-----0--------0-----|-----------1--------|--1--------1--------|
--------0--------0--|--------0-----0-----|-----0--------0-----|
--------------------|-----2-----------2--|--------2--------2--|
--------------------|--3-----------------|--------------------|
--------------------|--------------------|--------------------|


  E  E  E  E  E  E     E  E  E  E  E  E     E  E  E  E  E  E   
-----------1--------|--1--------1--------|-----------2--------|
--------------------|--------------------|--------0-----0-----|
--------2-----2-----|-----2--------2-----|-----1-----------1--|
-----3-----------3--|--------3--------3--|--------------------|
--------------------|--------------------|--------------------|
--3-----------------|--------------------|--2-----------------|


                                                                 ^              
  E  E  E  E  E  E     E  E  E  E  E  E     E  E  E  E  E  E     H.             
--2--------2--------|-----------2--------|--2--------2--------|--5------------||
-----0--------0-----|--------0-----0-----|-----0--------0-----|--2------------||
--------1--------1--|-----1-----------1--|--------1--------1--|--2------------||
--------------------|--------------------|--------------------|--2------------||
--------------------|--------------------|--------------------|--0------------||
--------------------|--2-----------------|--------------------|---------------||


_____________________



Electric guitar (Melody) :

                                         E   E   E   Q.      
E||--------|-------|-------|--------||------11--13----------|
B||--------|-------|-------|--------||--14------------------|
G||*-------|-------|-------|-------*||--------------15------|
D||*-------|-------|-------|-------*||----------------------|
A||--------|-------|-------|--------||----------------------|
E||--------|-------|-------|--------||----------------------|


   E   E   E   E   E   E      H.              H.            
--------------------------|----------------|---------------|
--11--13--14--------------|----------------|---------------|
--------------10--12--13--|--12------------|--L------------|
--------------------------|----------------|---------------|
--------------------------|----------------|---------------|
--------------------------|----------------|--L------------|


   E   E   E   Q.         E   E   E   E   E   E      Q     H         
------11--13----------|--------------------------|--------11--------|
--14------------------|--11--13--14--------------|------------------|
--------------15------|--------------10--12--13--|--12--------------|
----------------------|--------------------------|------------------|
----------------------|--------------------------|------------------|
----------------------|--------------------------|------------------|


  H.              E  E  E  Q    E     Q.     E  E  E     Q    H         
--L------------|-----6-------------|------------------|-------8--------|
---------------|--8-----9--8----6--|--8---------6--8--|--6-------------|
---------------|-------------------|---------8--------|----------------|
---------------|-------------------|------------------|----------------|
---------------|-------------------|------------------|----------------|
---------------|-------------------|------------------|----------------|


  H.              E   E   E  Q    E     Q.      E  E  E      Q     H         
--L------------|--8--12--10--8----7--|--8----------7--8--|--------15--------|
---------------|---------------------|---------10--------|--11--------------|
---------------|---------------------|-------------------|------------------|
---------------|---------------------|-------------------|------------------|
---------------|---------------------|-------------------|------------------|
---------------|---------------------|-------------------|------------------|


  H.                 E   E   E   E   E   E      E   E   E   E   E   E   
--L------------||---------------18--17------|--16--15--------------13--|
---------------||-------13--------------18--|----------16--14--16------|
---------------||*--15------15--------------|--------------------------|
---------------||*--------------------------|--------------------------|
---------------||---------------------------|--------------------------|
---------------||---------------------------|--------------------------|


   H.                               E   E   E   E   E   E   
----------------|---------------|--------------18--17------|
--11------------|---------------|------13--------------18--|
----------------|---------------|--15------15--------------|
----------------|---------------|--------------------------|
----------------|---------------|--------------------------|
----------------|---------------|--------------------------|


   E   E   E   E   E   E      H.                                              
--16--15--------------13--|--15------------|----------------||---------------|
----------16--14--16------|----------------|----------------||---------------|
--------------------------|----------------|---------------*||---------------|
--------------------------|----------------|---------------*||---------------|
--------------------------|----------------|----------------||---------------|
--------------------------|----------------|----------------||---------------|


   E   E   E   E   E   E      Q     Q     Q        H.            
--------------------------|--------------------|----------------|
--11--13--11--14--13--11--|--------------------|--11------------|
--------------------------|--13----------13----|----------------|
--------------------------|--------15----------|----------------|
--------------------------|--------------------|----------------|
--------------------------|--------------------|----------------|


                                                  H        Q     
---------------|---------------|---------------|----------------|
---------------|---------------|---------------|--3--------4----|
---------------|---------------|---------------|----------------|
---------------|---------------|---------------|----------------|
---------------|---------------|---------------|----------------|
---------------|---------------|---------------|----------------|


  H        Q       H        Q       Q.     E  E  E     H        Q     
-----------6----|--4--------3----|--1---------------|--1-------------|
--6-------------|----------------|---------4--3--4--|-----------3----|
----------------|----------------|------------------|----------------|
----------------|----------------|------------------|----------------|
----------------|----------------|------------------|----------------|
----------------|----------------|------------------|----------------|


  Q.     E  Q       H        Q       H.              H        Q     
-----------------|----------------|---------------|----------------|
---------1-------|----------------|---------------|--3--------4----|
--3---------3----|--1--------0----|---------------|----------------|
-----------------|----------------|--3------------|----------------|
-----------------|----------------|---------------|----------------|
-----------------|----------------|---------------|----------------|


  H        Q       H        Q       H        Q       H        Q     
-----------6----|--4--------3----|--1--------3----|--4-------------|
--6-------------|----------------|----------------|-----------6----|
----------------|----------------|----------------|----------------|
----------------|----------------|----------------|----------------|
----------------|----------------|----------------|----------------|
----------------|----------------|----------------|----------------|


  H        Q       H        Q       H        Q       H.                    
-----------4----|--6-------------|-----------6----|--8------------|-------|
--6-------------|-----------7----|--7-------------|---------------|-------|
----------------|----------------|----------------|---------------|-------|
----------------|----------------|----------------|---------------|-------|
----------------|----------------|----------------|---------------|-------|
----------------|----------------|----------------|---------------|-------|


                     E   E   E   E   E   E      E   E   E   E   E   E   
-------|-------||---------------18--17------|--16--15--------------13--|
-------|-------||-------13--------------18--|----------16--14--16------|
-------|-------||*--15------15--------------|--------------------------|
-------|-------||*--------------------------|--------------------------|
-------|-------||---------------------------|--------------------------|
-------|-------||---------------------------|--------------------------|


   H.                               E   E   E   E   E   E   
----------------|---------------|--------------18--17------|
--11------------|---------------|------13--------------18--|
----------------|---------------|--15------15--------------|
----------------|---------------|--------------------------|
----------------|---------------|--------------------------|
----------------|---------------|--------------------------|


   E   E   E   E   E   E      H.                                              
--16--15--------------13--|--15------------|----------------||---------------|
----------16--14--16------|----------------|----------------||---------------|
--------------------------|----------------|---------------*||---------------|
--------------------------|----------------|---------------*||---------------|
--------------------------|----------------|----------------||---------------|
--------------------------|----------------|----------------||---------------|


   E   E   E   E   E   E      Q     Q     Q        H.            
--------------------------|--------------------|----------------|
--11--13--11--14--13--11--|--------------------|--11------------|
--------------------------|--13----------13----|----------------|
--------------------------|--------15----------|----------------|
--------------------------|--------------------|----------------|
--------------------------|--------------------|----------------|


                                                  H        Q     
---------------|---------------|---------------|----------------|
---------------|---------------|---------------|--3--------4----|
---------------|---------------|---------------|----------------|
---------------|---------------|---------------|----------------|
---------------|---------------|---------------|----------------|
---------------|---------------|---------------|----------------|


  H        Q       H        Q       Q.     E  E  E     H        Q     
-----------6----|--4--------3----|--1---------------|--1-------------|
--6-------------|----------------|---------4--3--4--|-----------3----|
----------------|----------------|------------------|----------------|
----------------|----------------|------------------|----------------|
----------------|----------------|------------------|----------------|
----------------|----------------|------------------|----------------|


  Q.     E  Q       H        Q       H.              H        Q     
-----------------|----------------|---------------|----------------|
---------1-------|----------------|---------------|--3--------4----|
--3---------3----|--1--------0----|---------------|----------------|
-----------------|----------------|--3------------|----------------|
-----------------|----------------|---------------|----------------|
-----------------|----------------|---------------|----------------|


  H        Q       H        Q       H        Q       H        Q     
-----------6----|--4--------3----|--1--------3----|--4-------------|
--6-------------|----------------|----------------|-----------6----|
----------------|----------------|----------------|----------------|
----------------|----------------|----------------|----------------|
----------------|----------------|----------------|----------------|
----------------|----------------|----------------|----------------|


  H        Q       H        Q       H        Q       H.                    
-----------4----|--6-------------|-----------6----|--8------------|-------|
--6-------------|-----------7----|--7-------------|---------------|-------|
----------------|----------------|----------------|---------------|-------|
----------------|----------------|----------------|---------------|-------|
----------------|----------------|----------------|---------------|-------|
----------------|----------------|----------------|---------------|-------|


-------|-------|-------||
-------|-------|-------||
-------|-------|-------||
-------|-------|-------||
-------|-------|-------||
-------|-------|-------||


_______________________



Bass :


G||--------|-------|-------|--------||-------|-------|-------|-------|-------|
D||*-------|-------|-------|-------*||-------|-------|-------|-------|-------|
A||*-------|-------|-------|-------*||-------|-------|-------|-------|-------|
E||--------|-------|-------|--------||-------|-------|-------|-------|-------|


-------|-------|-------|-------|-------|-------|-------|-------|-------|-------|
-------|-------|-------|-------|-------|-------|-------|-------|-------|-------|
-------|-------|-------|-------|-------|-------|-------|-------|-------|-------|
-------|-------|-------|-------|-------|-------|-------|-------|-------|-------|


            H        E  E      H        E   E     H.            
-------||------------------|--10--------L--10--|--8------------|
-------||*--8--------L--8--|-------------------|---------------|
-------||*-----------------|-------------------|---------------|
-------||------------------|-------------------|---------------|


  H        E  S  S    H        E  E      H        E   S   S     Q     H         
-------------------|-----------------|--10--------L--10h-11-|--12--------------|
--8--------L--6h-7-|--8--------L--8--|----------------------|--------10--------|
-------------------|-----------------|----------------------|------------------|
-------------------|-----------------|----------------------|------------------|


   H.                H        E   S   S    H        E  E     H        Q     
-----------------||---------------------|-----------------|----------------|
----------------*||--8--------L---------|-----------------|-----------6----|
--10------------*||--------------11p-10-|--9--------L--9--|--8-------------|
-----------------||---------------------|-----------------|----------------|


  H.              H.                              H        E   E   
---------------|---------------|-------|-------|------------------|
--8------------|---------------|-------|-------|--8--------L--10--|
---------------|---------------|-------|-------|------------------|
---------------|--6------------|-------|-------|------------------|


   H         Q        H        E   E      H         Q       H        E   E   
------------------|-------------------|------------------|------------------|
--12--------------|-------------------|------------10----|--8--------L--10--|
------------13----|---------------10--|--11--------------|------------------|
------------------|--13--------L------|------------------|------------------|


   H         Q        H.              E   E   E  E   E   E   
------------------|----------------|-----12--10-------------|
--12--------------|----------------|----------------12--13--|
------------13----|----------------|------------------------|
------------------|--13------------|--L---------------------|


   Q    Q.      E      H         Q        H        E   E      H         Q     
--10---------------|------------------|-------------------|------------------|
--------8------10--|--12--------------|-------------------|------------10----|
-------------------|------------13----|---------------10--|--11--------------|
-------------------|------------------|--13--------L------|------------------|


   H        E   E      H         Q       H        E   E      Q     Q     Q     
-------------------|------------------|------------------|--------------------|
--11--------L------|------------------|--------------11--|--11----------------|
---------------11--|--11--------10----|--9--------L------|--------13----------|
-------------------|------------------|------------------|--------------14----|


   H         Q        H        Q       H         Q        H.            
------------------|-----------------|-----------------|----------------|
------------10----|--10-------------|-----------10----|--10------------|
------------------|-----------------|--8--------------|----------------|
--13--------------|------------8----|-----------------|----------------|


    H        E  E      H        E   E     H.              H        E  S  S  
|------------------|--10--------L--10--|--8------------|-------------------|
|*--8--------L--8--|-------------------|---------------|--8--------L--6h-7-|
|*-----------------|-------------------|---------------|-------------------|
|------------------|-------------------|---------------|-------------------|


  H        E  E      H        E   S   S     Q     H            H.              
-----------------|--10--------L--10h-11-|--12--------------|-----------------||
--8--------L--8--|----------------------|--------10--------|----------------*||
-----------------|----------------------|------------------|--10------------*||
-----------------|----------------------|------------------|-----------------||


  H        E   S   S    H        E  E     H        Q       H.            
---------------------|-----------------|----------------|---------------|
--8--------L---------|-----------------|-----------6----|--8------------|
--------------11p-10-|--9--------L--9--|--8-------------|---------------|
---------------------|-----------------|----------------|---------------|


  H.                              H        E   E      H         Q     
---------------|-------|-------|------------------|------------------|
---------------|-------|-------|--8--------L--10--|--12--------------|
---------------|-------|-------|------------------|------------13----|
--6------------|-------|-------|------------------|------------------|


   H        E   E      H         Q       H        E   E      H         Q     
-------------------|------------------|------------------|------------------|
-------------------|------------10----|--8--------L--10--|--12--------------|
---------------10--|--11--------------|------------------|------------13----|
--13--------L------|------------------|------------------|------------------|


   H.              E   E   E  E   E   E      Q    Q.      E   
----------------|-----12--10-------------|--10---------------|
----------------|----------------12--13--|--------8------10--|
----------------|------------------------|-------------------|
--13------------|--L---------------------|-------------------|


   H         Q        H        E   E      H         Q        H        E   E   
------------------|-------------------|------------------|-------------------|
--12--------------|-------------------|------------10----|--11--------L------|
------------13----|---------------10--|--11--------------|---------------11--|
------------------|--13--------L------|------------------|-------------------|


   H         Q       H        E   E      Q     Q     Q        H         Q     
------------------|------------------|--------------------|------------------|
------------------|--------------11--|--11----------------|------------10----|
--11--------10----|--9--------L------|--------13----------|------------------|
------------------|------------------|--------------14----|--13--------------|


   H        Q       H         Q        H.              H.             
-----------------|-----------------|----------------|---------------||
--10-------------|-----------10----|--10------------|---------------||
-----------------|--8--------------|----------------|---------------||
------------8----|-----------------|----------------|--6------------||






Duration Legend
---------------
W - whole
H - half
Q - quarter
E - 8th
S - 16th
T - 32nd
X - 64th
. - note dotted
|-n-|  - n-tuplets


Tablature Legend
----------------
L - tied note
x - dead note
g - grace note
(n) - ghost note
> - accentuded note
NH - natural harmonic
AH - artificial harmonic
TH - tapped harmonic
SH - semi harmonic
PH - pitch harmonic
h - hammer on
p - pull off
b - bend
br - bendRelease
pb - preBend
pbr - preBendRelease
brb - bendReleaseBend
\n/ - tremolo bar dip
\n - tremolo bar dive
-/n - tremolo bar Release up
/n\ - tremolo bar inverted dip
/n - tremolo bar return
-\n - tremolo bar Release down
S - shift slide
s - legato slide
/ -  slide into from below or out of upwards
\ -  slide into from above or out of downwards
~ - vibrato
W - wide vibrato
tr - trill
TP - tremolo picking
T - tapping
S - slap
P - pop
< - fade in
^ - brush up
v - brush down

5 comments on The Silence Before The Storm (Quartet)

If only I had three friends...

5

Whaaaaaaaaaaaaat

This is awesome. Thank you!

for it's a case of having 3

for it's a case of having 3 friends who not only play the guitar, but would be willing to play final fantasy music.

I cant believ all my friends they say "omfg final fantasy music? thats sad"

im like STFU NOOB final fantasy owns

for me it's a case of having 3

5

for me it's a case of having 3 friends who not only play the guitar, but would be willing to play final fantasy music.

I cant believ all my friends they say "omfg final fantasy music? thats sad"

im like STFU NOOB final fantasy owns

the doomofallfires is

5

the doomofallfires is amazing... so glad u're tabbing constantly. too bad i cant find another 3 friends to play with

This tab should be called

This tab should be called "Silence before the storm" IMO.
I had never seen this tab because of his title !