Login or Register to remove this ad. | Advertise Here

Silence Before the Storm (Final Fantasy X) Guitar Tab

Submitted: Dec 19, 2010 by ForestMarth

5
Average: 5 (4 votes)
Download | Listen
Game: Final Fantasy X
Composer(s): Nobuo Uematsu, Junya Nakano, Masashi Hamauzu
Style: 2 or more instruments, Alternate picking, Transcription
Series: Final Fantasy

This song is also called Calm Before the Storm

AutoScroll: Slow | Medium | Fast
                           Silence Before The Storm

Composed by : Nobuo Uematsu, Junya Nakano and Masashi Hamauzu

Transcription by : ForestMarth

Tabbed by : ForestMarth

Platform : PlayStation 2


I dedicate this tab to Stamen47.
It's his awesome arrangement of this song which made me want to make a 
transcription of this song.

I wanted to do a transcription with the same structure than Stamen's
arrangement that is to say three guitars and a bass.
I transcribed the two rhythm guitars and I transcribed all the melody for only
one guitar : an electric jazz guitar, in the middle tone in order to be 
consistent with the alternate title of this song : "CALM Before The Storm".

There is no bass tab in my transcription but bass is maybe the most important
instrument in this song in my opinion. I wanted to transcribe the bass but
Auriplane has already done it PERFECTLY.
Let see her bass tab to play the bass part of this song !
She authorized me to use her bass tab for my MIDI file so you can hear the bass
in the MIDI file (with the three guitars).
Thank you very much Auriplane :-)

So, here are the main two links :

Stamen47's arrangement : 
http://www.youtube.com/watch?v=KgFYrLpS_Q8

Auriplane's bass tab : 
http://www.gametabs.net/final-fantasy-x/silence-before-storm


NOTE : The three guitars are tuned 1/2 step below standard tuning.



Rhythm Guitar 1 (on the right)



      A#7                   A#7sus4       A#7          D#                 
      E   E  E  E  E  E     E       E  E  E   E  E     E  E  E  E  E  E   
D#||------------2--------|--0-------------2---------|-----------0--------|
A#||---------0-----0-----|----------0---------0-----|--------0-----0-----|
F#||------2-----------2--|-------------2---------2--|-----1-----------1--|
C#||---------------------|--------------------------|--------------------|
G#||--2------------------|--------------------------|--------------------|
D#||---------------------|--------------------------|--0-----------------|


  D#add9       D#          A#7                   A#7sus4       A#7        
  E      E  E  E  E  E     E   E  E  E  E  E     E       E  E  E   E  E   
--2------------0--------|------------2--------|--0-------------2---------|
---------0--------0-----|---------0-----0-----|----------0---------0-----|
------------1--------1--|------2-----------2--|-------------2---------2--|
------------------------|---------------------|--------------------------|
------------------------|--2------------------|--------------------------|
------------------------|---------------------|--------------------------|


  D#                   D#add9       D#          A#7                 
  E  E  E  E  E  E     E      E  E  E  E  E     E   E  E  E  E  E   
-----------0--------|--2------------0--------|------------2--------|
--------0-----0-----|---------0--------0-----|---------0-----0-----|
-----1-----------1--|------------1--------1--|------2-----------2--|
--------------------|------------------------|---------------------|
--------------------|------------------------|--2------------------|
--0-----------------|------------------------|---------------------|


  A#7sus4       A#7          D#                   D#add9       D#        
  E       E  E  E   E  E     E  E  E  E  E  E     E      E  E  E  E  E   
--0-------------2---------|-----------0--------|--2------------0--------|
----------0---------0-----|--------0-----0-----|---------0--------0-----|
-------------2---------2--|-----1-----------1--|------------1--------1--|
--------------------------|--------------------|------------------------|
--------------------------|--------------------|------------------------|
--------------------------|--0-----------------|------------------------|


  A#7                   A#7sus4       A#7          D#                 
  E   E  E  E  E  E     E       E  E  E   E  E     E  E  E  E  E  E   
------------2--------|--0-------------2---------|-----------0--------|
---------0-----0-----|----------0---------0-----|--------0-----0-----|
------2-----------2--|-------------2---------2--|-----1-----------1--|
---------------------|--------------------------|--------------------|
--2------------------|--------------------------|--------------------|
---------------------|--------------------------|--0-----------------|


  D#add9       D#          Cmadd9                                      
  E      E  E  E  E  E     E      E  E  E  E  E     E  E  E  E  E  E   
--2------------0--------|---------------0--------|--0--------0--------|
---------0--------0-----|------------4-----4-----|-----4--------4-----|
------------1--------1--|------------------------|--------------------|
------------------------|---------6-----------6--|--------6--------6--|
------------------------|--4---------------------|--------------------|
------------------------|------------------------|--------------------|


  C#6                                        A7sus2          Am7     
  E   E  E  E  E  E     E  E  E  E  E  E     E      E  E  E  E   E   
------------2--------|--2--------2--------|---------------1---------|
---------0-----0-----|-----0--------0-----|------------1-----2------|
------2-----------2--|--------2--------2--|---------1------------1--|
--0------------------|--------------------|-------------------------|
---------------------|--------------------|--1----------------------|
---------------------|--------------------|-------------------------|


                       Gm                   Gm/5+       Gm        
  E  E  E  E  E  E     E  E  E  E  E  E     E     E  E  E  E  E   
--1--------1--------|--------------------|-----------------------|
-----2--------2-----|-----------4--------|--5-----------4--------|
--------1--------1--|--------4-----4-----|--------4--------4-----|
--------------------|-----6-----------6--|-----------6--------6--|
--------------------|--------------------|-----------------------|
--------------------|--4-----------------|-----------------------|


  A#7                   A#7sus4       A#7          D#                 
  E   E  E  E  E  E     E       E  E  E   E  E     E  E  E  E  E  E   
------------2--------|--0-------------2---------|-----------0--------|
---------0-----0-----|----------0---------0-----|--------0-----0-----|
------2-----------2--|-------------2---------2--|-----1-----------1--|
---------------------|--------------------------|--------------------|
--2------------------|--------------------------|--------------------|
---------------------|--------------------------|--0-----------------|


  D#add9       D#          A#7                   A#7sus4       A#7        
  E      E  E  E  E  E     E   E  E  E  E  E     E       E  E  E   E  E   
--2------------0--------|------------2--------|--0-------------2---------|
---------0--------0-----|---------0-----0-----|----------0---------0-----|
------------1--------1--|------2-----------2--|-------------2---------2--|
------------------------|---------------------|--------------------------|
------------------------|--2------------------|--------------------------|
------------------------|---------------------|--------------------------|


  Cmadd9                                        A#7                 
  E      E  E  E  E  E     E  E  E  E  E  E     E   E  E  E  E  E   
---------------0--------|--0--------0--------|------------2--------|
------------4-----4-----|-----4--------4-----|---------0-----0-----|
------------------------|--------------------|------2-----------2--|
---------6-----------6--|--------6--------6--|---------------------|
--4---------------------|--------------------|--2------------------|
------------------------|--------------------|---------------------|


  A#7sus4       A#7          D#                   D#add9       D#        
  E       E  E  E   E  E     E  E  E  E  E  E     E      E  E  E  E  E   
--0-------------2---------|-----------0--------|--2------------0--------|
----------0---------0-----|--------0-----0-----|---------0--------0-----|
-------------2---------2--|-----1-----------1--|------------1--------1--|
--------------------------|--------------------|------------------------|
--------------------------|--------------------|------------------------|
--------------------------|--0-----------------|------------------------|


  F#add9                   Fm7                   A#sus4                 
  E      E  E  E  E  E     E   E  E  E  E  E     E      E  E  E  E  E   
------------------------|---------------------|------------------------|
---------------0--------|------------2--------|---------------5--------|
------------2-----2-----|---------2-----2-----|------------4-----4-----|
---------0-----------0--|------2-----------2--|---------4-----------4--|
------------------------|---------------------|--2---------------------|
--3---------------------|--2------------------|------------------------|


  A#sus2       A#          A#sus4                   A#sus2       A#        
  E      E  E  E  E  E     E      E  E  E  E  E     E      E  E  E  E  E   
------------------------|------------------------|------------------------|
--2------------4--------|---------------5--------|--2------------4--------|
---------4--------4-----|------------4-----4-----|---------4--------4-----|
------------4--------4--|---------4-----------4--|------------4--------4--|
------------------------|--2---------------------|------------------------|
------------------------|------------------------|------------------------|


  A#add11                                        Fm                 
  E       E  E  E  E  E     E  E  E  E  E  E     E  E  E  E  E  E   
----------------0--------|--0--------0--------|-----------2--------|
-------------------4-----|-----4--------4-----|--------------2-----|
-------------4--------4--|--------4--------4--|--------2--------2--|
----------4--------------|--------------------|-----4--------------|
--2----------------------|--------------------|--------------------|
-------------------------|--------------------|--2-----------------|


                       A#add11                                      
  E  E  E  E  E  E     E       E  E  E  E  E     E  E  E  E  E  E   
--2--------2--------|----------------0--------|--0--------0--------|
-----2--------2-----|-------------------4-----|-----4--------4-----|
--------2--------2--|-------------4--------4--|--------4--------4--|
--------------------|----------4--------------|--------------------|
--------------------|--2----------------------|--------------------|
--------------------|-------------------------|--------------------|


  Fm                                        A#add11                 
  E  E  E  E  E  E     E  E  E  E  E  E     E       E  E  E  E  E   
-----------2--------|--2--------2--------|----------------0--------|
--------------2-----|-----2--------2-----|-------------------4-----|
--------2--------2--|--------2--------2--|-------------4--------4--|
-----4--------------|--------------------|----------4--------------|
--------------------|--------------------|--2----------------------|
--2-----------------|--------------------|-------------------------|


                       Fm                                      
  E  E  E  E  E  E     E  E  E  E  E  E     E  E  E  E  E  E   
--0--------0--------|-----------2--------|--2--------2--------|
-----4--------4-----|--------------2-----|-----2--------2-----|
--------4--------4--|--------2--------2--|--------2--------2--|
--------------------|-----4--------------|--------------------|
--------------------|--------------------|--------------------|
--------------------|--2-----------------|--------------------|


  C#7M                                        F#7M                 
  E    E  E  E  E  E     E  E  E  E  E  E     E    E  E  E  E  E   
----------------------|--------------------|-------------2--------|
-------------2--------|--2--------2--------|----------0-----0-----|
----------2-----2-----|-----2--------2-----|-------0-----------0--|
-------4-----------4--|--------4--------4--|----------------------|
--5-------------------|--------------------|----------------------|
----------------------|--------------------|--3-------------------|


                       Fadd9                                      
  E  E  E  E  E  E     E     E  E  E  E  E     E  E  E  E  E  E   
--2--------2--------|--------------4--------|--4--------4--------|
-----0--------0-----|-----------2-----2-----|-----2--------2-----|
--------0--------0--|--------3-----------3--|--------3--------3--|
--------------------|-----------------------|--------------------|
--------------------|-----------------------|--------------------|
--------------------|--2--------------------|--------------------|


  Fadd9                                        A#7                 
  E     E  E  E  E  E     E  E  E  E  E  E     E   E  E  E  E  E   
--------------4--------|--4--------4--------|------------2--------|
-----------2-----2-----|-----2--------2-----|---------0-----0-----|
--------3-----------3--|--------3--------3--|------2-----------2--|
-----------------------|--------------------|---------------------|
-----------------------|--------------------|--2------------------|
--2--------------------|--------------------|---------------------|


  A#7sus4       A#7          D#                   D#add9       D#        
  E       E  E  E   E  E     E  E  E  E  E  E     E      E  E  E  E  E   
--0-------------2---------|-----------0--------|--2------------0--------|
----------0---------0-----|--------0-----0-----|---------0--------0-----|
-------------2---------2--|-----1-----------1--|------------1--------1--|
--------------------------|--------------------|------------------------|
--------------------------|--------------------|------------------------|
--------------------------|--0-----------------|------------------------|


  A#7                   A#7sus4       A#7          Cmadd9                 
  E   E  E  E  E  E     E       E  E  E   E  E     E      E  E  E  E  E   
------------2--------|--0-------------2---------|---------------0--------|
---------0-----0-----|----------0---------0-----|------------4-----4-----|
------2-----------2--|-------------2---------2--|------------------------|
---------------------|--------------------------|---------6-----------6--|
--2------------------|--------------------------|--4---------------------|
---------------------|--------------------------|------------------------|


                       A#7                   A#7sus4       A#7        
  E  E  E  E  E  E     E   E  E  E  E  E     E       E  E  E   E  E   
--0--------0--------|------------2--------|--0-------------2---------|
-----4--------4-----|---------0-----0-----|----------0---------0-----|
--------------------|------2-----------2--|-------------2---------2--|
--------6--------6--|---------------------|--------------------------|
--------------------|--2------------------|--------------------------|
--------------------|---------------------|--------------------------|


  D#                   D#add9       D#          F#add9                 
  E  E  E  E  E  E     E      E  E  E  E  E     E      E  E  E  E  E   
-----------0--------|--2------------0--------|------------------------|
--------0-----0-----|---------0--------0-----|---------------0--------|
-----1-----------1--|------------1--------1--|------------2-----2-----|
--------------------|------------------------|---------0-----------0--|
--------------------|------------------------|------------------------|
--0-----------------|------------------------|--3---------------------|


  Fm7                   A#sus4                   A#sus2       A#        
  E   E  E  E  E  E     E      E  E  E  E  E     E      E  E  E  E  E   
---------------------|------------------------|------------------------|
------------2--------|---------------5--------|--2------------4--------|
---------2-----2-----|------------4-----4-----|---------4--------4-----|
------2-----------2--|---------4-----------4--|------------4--------4--|
---------------------|--2---------------------|------------------------|
--2------------------|------------------------|------------------------|


  A#sus4                   A#sus2       A#          
  E      E  E  E  E  E     E      E  E  E  E  E     
------------------------|-------------------------||
---------------5--------|--2------------4---------||
------------4-----4-----|---------4--------4-----*||
---------4-----------4--|------------4--------4--*||
--2---------------------|-------------------------||
------------------------|-------------------------||



Rhythm Guitar 2 (on the left)



       E   E   E   E   E   E      E   E   E   E   E   E   
D#||--------------------------|--------------------------|
A#||--12--------------12------|--12--------------12------|
F#||------11------11------11--|------11------11------11--|
C#||----------12--------------|----------12--------------|
G#||--------------------------|--------------------------|
D#||--------------------------|--------------------------|


   E   E  E   E   E   E      E   E  E   E   E   E      E   E   E   E   E   E   
----------0--------------|----------0--------------|--------------------------|
--12-------------12------|--12-------------12------|--12--------------12------|
------11-----11------11--|------11-----11------11--|------11------11------11--|
-------------------------|-------------------------|----------12--------------|
-------------------------|-------------------------|--------------------------|
-------------------------|-------------------------|--------------------------|


   E   E   E   E   E   E      E   E  E   E   E   E      E   E  E   E   E   E   
--------------------------|----------0--------------|----------0--------------|
--12--------------12------|--12-------------12------|--12-------------12------|
------11------11------11--|------11-----11------11--|------11-----11------11--|
----------12--------------|-------------------------|-------------------------|
--------------------------|-------------------------|-------------------------|
--------------------------|-------------------------|-------------------------|


   E   E   E   E   E   E      E   E   E   E   E   E      E   E  E   E   E   E   
--------------------------|--------------------------|----------0--------------|
--12--------------12------|--12--------------12------|--12-------------12------|
------11------11------11--|------11------11------11--|------11-----11------11--|
----------12--------------|----------12--------------|-------------------------|
--------------------------|--------------------------|-------------------------|
--------------------------|--------------------------|-------------------------|


   E   E  E   E   E   E      E   E   E   E   E   E      E   E   E   E   E   E   
----------0--------------|--------------------------|--------------------------|
--12-------------12------|--12--------------12------|--12--------------12------|
------11-----11------11--|------11------11------11--|------11------11------11--|
-------------------------|----------12--------------|----------12--------------|
-------------------------|--------------------------|--------------------------|
-------------------------|--------------------------|--------------------------|


   E   E  E   E   E   E      E   E  E   E   E   E      E  E   E  E   E  E   
----------0--------------|----------0--------------|------0------0------0--|
--12-------------12------|--12-------------12------|-----------------------|
------11-----11------11--|------11-----11------11--|--13------------13-----|
-------------------------|-------------------------|---------11------------|
-------------------------|-------------------------|-----------------------|
-------------------------|-------------------------|-----------------------|


   E  E   E  E   E  E      E   E   E   E   E   E      E   E   E   E   E   E   
------0------0------0--|--------------------------|--------------------------|
-----------------------|--10--------------10------|--10--------------10------|
--13------------13-----|------11------11------11--|------11------11------11--|
---------11------------|----------12--------------|----------12--------------|
-----------------------|--------------------------|--------------------------|
-----------------------|--------------------------|--------------------------|


       >       >       >          >       >       >                        
   E   E   E   E   E   E      E   E   E   E   E   E     E  E  E  E  E  E   
--------------------------|--------------------------|--------------------|
--11--------------11------|--11--------------11------|--9-----------9-----|
------10------10------10--|------10------10------10--|-----8-----8-----8--|
----------13--------------|----------11--------------|--------9-----------|
--------------------------|--------------------------|--------------------|
--------------------------|--------------------------|--------------------|


  E  E  E  E  E  E      E   E   E   E   E   E      E   E   E   E   E   E   
-----0--------------|--------------------------|--------------------------|
--9-----------9-----|--12--------------12------|--12--------------12------|
-----------8-----8--|------11------11------11--|------11------11------11--|
--------9-----------|----------12--------------|----------12--------------|
--------------------|--------------------------|--------------------------|
--------------------|--------------------------|--------------------------|


   E   E  E   E   E   E      E   E  E   E   E   E      E   E   E   E   E   E   
----------0--------------|----------0--------------|--------------------------|
--12-------------12------|--12-------------12------|--12--------------12------|
------11-----11------11--|------11-----11------11--|------11------11------11--|
-------------------------|-------------------------|----------12--------------|
-------------------------|-------------------------|--------------------------|
-------------------------|-------------------------|--------------------------|


   E   E   E   E   E   E      E  E   E  E   E  E      E  E   E  E   E  E   
--------------------------|------0------0------0--|------0------0------0--|
--12--------------12------|--12------------12-----|--12------------12-----|
------11------11------11--|-----------------------|-----------------------|
----------12--------------|---------11------------|---------11------------|
--------------------------|-----------------------|-----------------------|
--------------------------|-----------------------|-----------------------|


   E   E   E   E   E   E      E   E   E   E   E   E      E   E  E   E   E   E   
--------------------------|--------------------------|----------0--------------|
--12--------------12------|--12--------------12------|--12-------------12------|
------11------11------11--|------11------11------11--|------11-----11------11--|
----------12--------------|----------12--------------|-------------------------|
--------------------------|--------------------------|-------------------------|
--------------------------|--------------------------|-------------------------|


   E   E  E   E   E   E      E   E   E   E   E   E      E   E   E   E   E   E   
----------0--------------|--------------------------|--------------------------|
--12-------------12------|--12--------------12------|--10--------------10------|
------11-----11------11--|------11------11------11--|------11------11------11--|
-------------------------|----------12--------------|----------11--------------|
-------------------------|--------------------------|--------------------------|
-------------------------|--------------------------|--------------------------|


   E   E   E   E   E   E      E   E   E   E   E   E   
--------------------------|--------------------------|
--12--------------12------|--12--------------12------|
------11------11------11--|------11------11------11--|
----------13--------------|----------13--------------|
--------------------------|--------------------------|
--------------------------|--------------------------|


   E   E   E   E   E   E      E   E   E   E   E   E   
--------------------------|--------------------------|
--12--------------12------|--12--------------12------|
------11------11------11--|------11------11------11--|
----------13--------------|----------13--------------|
--------------------------|--------------------------|
--------------------------|--------------------------|


   E   E   E   E   E   E      E   E   E   E   E   E   
--------------------------|--------------------------|
--12--------------12------|--12--------------12------|
------11------11------11--|------11------11------11--|
----------13--------------|----------13--------------|
--------------------------|--------------------------|
--------------------------|--------------------------|


   E   E   E   E   E   E      E   E   E   E   E   E   
--------------------------|--------------------------|
--10--------------10------|--10--------------10------|
------11------11------11--|------11------11------11--|
----------11--------------|----------11--------------|
--------------------------|--------------------------|
--------------------------|--------------------------|


   E   E   E   E   E   E      E   E   E   E   E   E   
--------------------------|--------------------------|
--12--------------12------|--12--------------12------|
------11------11------11--|------11------11------11--|
----------13--------------|----------13--------------|
--------------------------|--------------------------|
--------------------------|--------------------------|


   E   E   E   E   E   E      E   E   E   E   E   E   
--------------------------|--------------------------|
--10--------------10------|--10--------------10------|
------11------11------11--|------11------11------11--|
----------11--------------|----------11--------------|
--------------------------|--------------------------|
--------------------------|--------------------------|


   E   E   E   E   E   E      E   E   E   E   E   E   
--------------------------|--------------------------|
--12--------------12------|--12--------------12------|
------11------11------11--|------11------11------11--|
----------13--------------|----------13--------------|
--------------------------|--------------------------|
--------------------------|--------------------------|


   E   E   E   E   E   E      E   E   E   E   E   E   
--------------------------|--------------------------|
--10--------------10------|--10--------------10------|
------11------11------11--|------11------11------11--|
----------11--------------|----------11--------------|
--------------------------|--------------------------|
--------------------------|--------------------------|


   E   E   E   E   E   E      E   E   E   E   E   E   
--------------------------|--------------------------|
--10--------------10------|--10--------------10------|
------11------11------11--|------11------11------11--|
----------12--------------|----------12--------------|
--------------------------|--------------------------|
--------------------------|--------------------------|


   E   E   E   E   E   E      E   E   E   E   E   E   
--------------------------|--------------------------|
--12--------------12------|--12--------------12------|
------12------12------12--|------12------12------12--|
----------12--------------|----------12--------------|
--------------------------|--------------------------|
--------------------------|--------------------------|


   E   E   E   E   E   E      E   E   E   E   E   E   
--------------------------|--------------------------|
--11--------------11------|------------------11------|
------11------11------11--|------11------11------11--|
----------11--------------|--11------11--------------|
--------------------------|--------------------------|
--------------------------|--------------------------|


   E   E   E   E   E   E      E   E   E   E   E   E   
--------------------------|--------------------------|
--11--------------11------|--11--------------11------|
------11------11------11--|------11------11------11--|
----------11--------------|----------11--------------|
--------------------------|--------------------------|
--------------------------|--------------------------|


   E   E   E   E   E   E      E   E   E   E   E   E      E   E  E   E   E   E   
--------------------------|--------------------------|----------0--------------|
--12--------------12------|--12--------------12------|--12-------------12------|
------11------11------11--|------11------11------11--|------11-----11------11--|
----------12--------------|----------12--------------|-------------------------|
--------------------------|--------------------------|-------------------------|
--------------------------|--------------------------|-------------------------|


   E   E  E   E   E   E      E   E   E   E   E   E      E   E   E   E   E   E   
----------0--------------|--------------------------|--------------------------|
--12-------------12------|--12--------------12------|--12--------------12------|
------11-----11------11--|------11------11------11--|------11------11------11--|
-------------------------|----------12--------------|----------12--------------|
-------------------------|--------------------------|--------------------------|
-------------------------|--------------------------|--------------------------|


   E  E   E  E   E  E      E  E   E  E   E  E      E   E   E   E   E   E   
------0------0------0--|------0------0------0--|--------------------------|
--12------------12-----|--12------------12-----|--12--------------12------|
-----------------------|-----------------------|------11------11------11--|
---------11------------|---------11------------|----------12--------------|
-----------------------|-----------------------|--------------------------|
-----------------------|-----------------------|--------------------------|


   E   E   E   E   E   E      E   E  E   E   E   E      E   E  E   E   E   E   
--------------------------|----------0--------------|----------0--------------|
--12--------------12------|--12-------------12------|--12-------------12------|
------11------11------11--|------11-----11------11--|------11-----11------11--|
----------12--------------|-------------------------|-------------------------|
--------------------------|-------------------------|-------------------------|
--------------------------|-------------------------|-------------------------|


   E   E   E   E   E   E      E   E   E   E   E   E   
--------------------------|--------------------------|
--12--------------12------|--10--------------10------|
------11------11------11--|------11------11------11--|
----------12--------------|----------11--------------|
--------------------------|--------------------------|
--------------------------|--------------------------|


   E   E   E   E   E   E      E   E   E   E   E   E   
--------------------------|--------------------------|
--12--------------12------|--12--------------12------|
------11------11------11--|------11------11------11--|
----------13--------------|----------13--------------|
--------------------------|--------------------------|
--------------------------|--------------------------|


   E   E   E   E   E   E      E   E   E   E   E   E     
--------------------------|---------------------------||
--12--------------12------|--12--------------12-------||
------11------11------11--|------11------11------11--*||
----------13--------------|----------13--------------*||
--------------------------|---------------------------||
--------------------------|---------------------------||



Lead Guitar (melody)



      H.              H.              H.              H.            
D#||---------------|---------------|---------------|---------------|
A#||---------------|---------------|---------------|---------------|
F#||---------------|---------------|---------------|---------------|
C#||---------------|---------------|---------------|---------------|
G#||---------------|---------------|---------------|---------------|
D#||---------------|---------------|---------------|---------------|


  H.              H.              H.              H.            
---------------|---------------|---------------|---------------|
---------------|---------------|---------------|---------------|
---------------|---------------|---------------|---------------|
---------------|---------------|---------------|---------------|
---------------|---------------|---------------|---------------|
---------------|---------------|---------------|---------------|


   E  E   E  Q.        E   E   E  E   E   E      H.               H.            
--------------------|------------------------|----------------|----------------|
--------------------|------------------------|----------------|----------------|
------9--11---------|------------------------|----------------|----------------|
--12---------9------|--9--11--12-------------|----------------|----------------|
--------------------|-------------9--11--12--|--11------------|---L------------|
--------------------|------------------------|----------------|----------------|


   E  E   E  Q.        E   E   E  E   E   E      Q    H           H.            
--------------------|------------------------|-----------------|---------------|
--------------------|------------------------|-----------------|---------------|
------9--11---------|------------------------|--------9--------|--L------------|
--12---------9------|--9--11--12-------------|-----------------|---------------|
--------------------|-------------9--11--12--|--11-------------|---------------|
--------------------|------------------------|-----------------|---------------|


   E  E   E   Q    E      Q.      E  E   E     Q     H            H.            
----------------------|---------------------|-----------------|----------------|
----------------------|---------------------|-----------------|----------------|
----------------------|---------------------|-----------------|----------------|
------9---------------|---------------------|-------11--------|---L------------|
--11-----12--11----9--|--11----------9--11--|--9--------------|----------------|
----------------------|----------12---------|-----------------|----------------|


   E   E  E   Q     E      Q.     E   E   E     Q    H           H.            
-----------------------|---------------------|----------------|---------------|
-----------------------|---------------------|-------9--------|--L------------|
------10--8------------|---------------------|----------------|---------------|
--11---------11----10--|--11------8--10--11--|--9-------------|---------------|
-----------------------|---------------------|----------------|---------------|
-----------------------|---------------------|----------------|---------------|


  E   E  E   E   E   E      E  E  E   E  E   E     H.            
------------------------|-----------------------|---------------|
------------12--11------|--10--9----------------|---------------|
--------------------11--|---------9------9--11--|---------------|
--9--11--9--------------|------------12---------|--9------------|
------------------------|-----------------------|---------------|
------------------------|-----------------------|---------------|


  H        Q       E   E  E   E   E   E      E  E  E   E  E   E   
----------------|------------------------|-----------------------|
----------------|------------12--11------|--10--9----------------|
----------------|--------------------11--|---------9------9--11--|
--L-------------|--9--11--9--------------|------------12---------|
----------------|------------------------|-----------------------|
----------------|------------------------|-----------------------|


  H.              H        Q       E   E  E   E   E   E   
---------------|----------------|------------------------|
--9------------|--L-------------|------------12--11------|
---------------|----------------|--------------------11--|
---------------|----------------|--9--11--9--------------|
---------------|----------------|------------------------|
---------------|----------------|------------------------|


   E  E  E   E  E   E     H.              H        Q     
-----------------------|---------------|----------------|
--10--9----------------|---------------|----------------|
---------9------9--11--|---------------|----------------|
------------12---------|--9------------|--L-------------|
-----------------------|---------------|----------------|
-----------------------|---------------|----------------|


  E   E  E   E   E  E      Q    Q     Q       H.              H.            
-----------------------|-------------------|---------------|---------------|
-----------------------|-------------------|---------------|---------------|
-----------------------|-------------------|---------------|---------------|
--9--11--9--12--11--9--|-------------------|--9------------|--L------------|
-----------------------|--12----9----12----|---------------|---------------|
-----------------------|-------------------|---------------|---------------|


  H.              H.              Q    Q    Q        Q    Q     Q     
---------------|---------------|-----------------|-------------------|
---------------|---------------|-----------------|-------------12----|
---------------|---------------|--8----8----9----|--11---------------|
---------------|---------------|-----------------|--------9----------|
---------------|---------------|-----------------|-------------------|
---------------|---------------|-----------------|-------------------|


   H        Q        Q.     E  E  E      H        Q       Q.      E  Q     
-----------------|-------------------|-----------------|------------------|
--10--------9----|-------------------|-----------------|------------------|
-----------------|--11------9--8--9--|--11--------8----|------------------|
-----------------|-------------------|-----------------|--9------11--9----|
-----------------|-------------------|-----------------|------------------|
-----------------|-------------------|-----------------|------------------|


   H         Q       H.              Q    Q    Q        Q    Q     Q     
------------------|---------------|-----------------|-------------------|
------------------|---------------|-----------------|-------------12----|
------------------|---------------|--8----8----9----|--11---------------|
------------------|---------------|-----------------|--------9----------|
--12--------11----|--9------------|-----------------|-------------------|
------------------|---------------|-----------------|-------------------|


   H        Q        Q     Q    Q        H         Q        H         Q     
-----------------|-------------------|------------------|------------------|
--10--------9----|--------------9----|--10--------------|------------10----|
-----------------|--11----11---------|------------11----|--11--------------|
-----------------|-------------------|------------------|------------------|
-----------------|-------------------|------------------|------------------|
-----------------|-------------------|------------------|------------------|


   H         Q        H         Q        H.              H.            
------------------|------------------|----------------|---------------|
--12--------------|------------12----|--14------------|---------------|
------------12----|--12--------------|----------------|---------------|
------------------|------------------|----------------|---------------|
------------------|------------------|----------------|---------------|
------------------|------------------|----------------|---------------|


  H.              H.              E   E  E   E   E   E   
---------------|---------------|------------------------|
---------------|---------------|------------12--11------|
---------------|---------------|--------------------11--|
---------------|---------------|--9--11--9--------------|
---------------|---------------|------------------------|
---------------|---------------|------------------------|


   E  E  E   E  E   E     H.              H        Q     
-----------------------|---------------|----------------|
--10--9----------------|---------------|----------------|
---------9------9--11--|---------------|----------------|
------------12---------|--9------------|--L-------------|
-----------------------|---------------|----------------|
-----------------------|---------------|----------------|


  E   E  E   E   E   E      E  E  E   E  E   E     H.            
------------------------|-----------------------|---------------|
------------12--11------|--10--9----------------|--9------------|
--------------------11--|---------9------9--11--|---------------|
--9--11--9--------------|------------12---------|---------------|
------------------------|-----------------------|---------------|
------------------------|-----------------------|---------------|


  H        Q       E   E  E   E   E   E      E  E  E   E  E   E   
----------------|------------------------|-----------------------|
--L-------------|------------12--11------|--10--9----------------|
----------------|--------------------11--|---------9------9--11--|
----------------|--9--11--9--------------|------------12---------|
----------------|------------------------|-----------------------|
----------------|------------------------|-----------------------|


  H.              H        Q       E   E  E   E   E  E      Q    Q     Q     
---------------|----------------|-----------------------|-------------------|
---------------|----------------|-----------------------|-------------------|
---------------|----------------|-----------------------|-------------------|
--9------------|--L-------------|--9--11--9--12--11--9--|-------------------|
---------------|----------------|-----------------------|--12----9----12----|
---------------|----------------|-----------------------|-------------------|


  H.              H.              H.              H.              
---------------|---------------|---------------|----------------||
---------------|---------------|---------------|----------------||
---------------|---------------|---------------|---------------*||
--9------------|--L------------|---------------|---------------*||
---------------|---------------|---------------|----------------||
---------------|---------------|---------------|----------------||



Duration Legend
---------------
W - whole
H - half
Q - quarter
E - 8th
S - 16th
T - 32nd
X - 64th
. - note dotted
|-n-|  - n-tuplets


Tablature Legend
----------------
L - tied note
> - accentuded note