Login or Register to remove this ad. | Advertise Here

Silence Before The Storm (Final Fantasy X) Guitar Tab

Submitted: Nov 29, 2010 by GrimacingGrimoire

0
Download | Listen
Game: Final Fantasy X
Composer(s): Nobuo Uematsu, Junya Nakano, Masashi Hamauzu
Style: Alternate picking, Fingerstyle, Transcription
Series: Final Fantasy

AutoScroll: Slow | Medium | Fast
Composer: Nobuo Uematsu
Game: Final Fantasy X
Song: Silence Before The Storm

Date: 11-29-2010
Tabberguy: GrimacingGrimoire


I used tuxguitar to make this tab. If you look at that file you will find out how long to hold notes and
whatever...there is also the music for this song in there(the tuxguitar file), if that's your thing. I also
included a MIDI sound file if you can't read music and just want to mimic that. Anyway, enjoy!

 

E|-------------1-----------|-------------1-----------|-------------------------|-1-----------------------|
B|-------------------------|-4-----------------------|-------------4-----------|-------------4-----------|
G|-----1---3-------3---1---|-----3---1-------3---1---|-----0---3-------3---0---|-----3---0-------3---0---|
D|-------------------------|-------------------------|-1-----------------------|-------------------------|
A|-1-----------------------|-------------------------|-------------------------|-------------------------|
E|-------------------------|-------------------------|-------------------------|-------------------------|


E|-------------1-----------|-------------1-----------|-------------------------|-1-----------------------|
B|-------------------------|-4-----------------------|-------------4-----------|-------------4-----------|
G|-----1---3-------3---1---|-----3---1-------3---1---|-----0---3-------3---0---|-----3---0-------3---0---|
D|-------------------------|-------------------------|-1-----------------------|-------------------------|
A|-1-----------------------|-------------------------|-------------------------|-------------------------|
E|-------------------------|-------------------------|-------------------------|-------------------------|


E|---------1---------|-------------------------|--------|--------|---------1---------|
B|-2---4-------------|-----1---2---------------|--------|--------|-2---4-------------|
G|-------------3-----|-3---------------0---1---|-0------|--------|-------------3-----|
D|-------------------|-------------3-----------|--------|--------|-------------------|
A|-------------------|-------------------------|--------|--------|-------------------|
E|-------------------|-------------------------|--------|--------|-------------------|


E|-------------------------|------------|--------|----------------------|-------------------|
B|-----1---2---------------|------4-----|--------|----------------------|-------------------|
G|-3---------------0---1---|-0----------|--------|-0---3---1---0--------|-0-------------0---|
D|-------------3-----------|------------|--------|------------------3---|-------1---3-------|
A|-------------------------|------------|--------|----------------------|-------------------|
E|-------------------------|------------|--------|----------------------|-------------------|


E|------------|--------|-----0----------------|-------------------|------3-----|--------|
B|------1-----|--------|-1-------3---1----0---|-1---------0---1---|------------|--------|
G|------------|--------|----------------------|-------2-----------|-3----------|--------|
D|-3----------|--------|----------------------|-------------------|------------|--------|
A|------------|--------|----------------------|-------------------|------------|--------|
E|------------|--------|----------------------|-------------------|------------|--------|


E|-------------6---5-------|-4---3---------------1---|--------|--------|-------------6---5-------|
B|-----1---------------6---|---------4---2---4-------|--------|--------|-----1---------------6---|
G|-3-------3---------------|-------------------------|-3------|--------|-3-------3---------------|
D|-------------------------|-------------------------|--------|--------|-------------------------|
A|-------------------------|-------------------------|--------|--------|-------------------------|
E|-------------------------|-------------------------|--------|--------|-------------------------|


E|-4---3---------------1---|-3------|--------|-------------6---5-------|-4---3---------------1---|
B|---------4---2---4-------|--------|--------|-----1---------------6---|---------4---2---4-------|
G|-------------------------|--------|--------|-3-------3---------------|-------------------------|
D|-------------------------|--------|--------|-------------------------|-------------------------|
A|-------------------------|--------|--------|-------------------------|-------------------------|
E|-------------------------|--------|--------|-------------------------|-------------------------|


E|--------|--------|-------------------------|----------------|--------|--------|--------|
B|--------|--------|-----1-------2---1-------|----------------|--------|--------|--------|
G|-3------|--------|-3-------3-----------3---|-1---------1----|-3------|--------|--------|
D|--------|--------|-------------------------|------3---------|--------|--------|--------|
A|--------|--------|-------------------------|----------------|--------|--------|--------|
E|--------|--------|-------------------------|----------------|--------|--------|--------|


E|--------|----------------|-1---------6----|-4-----3----|-1-----------------|-1----------|
B|--------|-3----3----4----|----------------|------------|-------4---3---4---|-------3----|
G|--------|----------------|------3---------|------------|-------------------|------------|
D|--------|----------------|----------------|------------|-------------------|------------|
A|--------|----------------|----------------|------------|-------------------|------------|
E|--------|----------------|----------------|------------|-------------------|------------|


E|----------------|------------|--------|----------------|-1---------6----|-4-----3----|
B|-------1--------|------------|--------|-3----3----4----|----------------|------------|
G|-3---------3----|-1-----0----|--------|----------------|------3---------|------------|
D|----------------|------------|-3------|----------------|----------------|------------|
A|----------------|------------|--------|----------------|----------------|------------|
E|----------------|------------|--------|----------------|----------------|------------|


E|-1----1----3----|-4-----1----|-1-----4----|-6----------|-------6----|-8------|--------|
B|----------------|------------|------------|-------7----|-7----------|--------|--------|
G|----------------|------------|------------|------------|------------|--------|--------|
D|----------------|------------|------------|------------|------------|--------|--------|
A|----------------|------------|------------|------------|------------|--------|--------|
E|----------------|------------|------------|------------|------------|--------|--------|


E|--------|--------|-------------6---5-------|-4---3---------------1---|--------|--------|
B|--------|--------|-----1---------------6---|---------4---2---4-------|--------|--------|
G|--------|--------|-3-------3---------------|-------------------------|-3------|--------|
D|--------|--------|-------------------------|-------------------------|--------|--------|
A|--------|--------|-------------------------|-------------------------|--------|--------|
E|--------|--------|-------------------------|-------------------------|--------|--------|


E|-------------6---5-------|-4---3---------------1---|-3------|--------|-------------6---5-------|
B|-----1---------------6---|---------4---2---4-------|--------|--------|-----1---------------6---|
G|-3-------3---------------|-------------------------|--------|--------|-3-------3---------------|
D|-------------------------|-------------------------|--------|--------|-------------------------|
A|-------------------------|-------------------------|--------|--------|-------------------------|
E|-------------------------|-------------------------|--------|--------|-------------------------|


E|-4---3---------------1---|--------|--------|-------------------------|----------------|
B|---------4---2---4-------|--------|--------|-----1-------2---1-------|----------------|
G|-------------------------|-3------|--------|-3-------3-----------3---|-1---------1----|
D|-------------------------|--------|--------|-------------------------|------3---------|
A|-------------------------|--------|--------|-------------------------|----------------|
E|-------------------------|--------|--------|-------------------------|----------------|


E|--------|
B|--------|
G|-3------|
D|--------|
A|--------|
E|--------|