Login or Register to remove this ad. | Advertise Here

Silence Before the Storm (Final Fantasy X) Guitar Tab

Submitted: May 27, 2010 by Daugreano

0
Download | Listen
Game: Final Fantasy X
Composer(s): Nobuo Uematsu, Junya Nakano, Masashi Hamauzu
Style: Transcription
Series: Final Fantasy

AutoScroll: Slow | Medium | Fast
Song: Silence Before The Storm
Game: Final Fantasy X
Composer(s): Nobuo Uematsu, Junya Nakano, Masashi Hamauzu
Tabbed by: Daugreano


Guitar 

   E   E   E   E   E   E     E   E   E   E   E   E     E   E   E   E   E   E     E   E   E   E   E   E
E|-6---------------6-------|-6---------------6-------|-6---------------6-------|-6---------------6-------|
B|-----6-------6-------6---|-----6-------6-------6---|-----6-------6-------6---|-----6-------6-------6---|
G|---------6---------------|---------8---------------|---------6---------------|---------8---------------|
D|-------------------------|-------------------------|-------------------------|-------------------------|
A|-------------------------|-------------------------|-------------------------|-------------------------|
E|-------------------------|-------------------------|-------------------------|-------------------------|

   E   E   E   E   E   E     E   E   E   E   E   E     E   E   E   E   E   E     E   E   E   E   E   E
E|-6---------------6-------|-6---------------6-------|-6---------------6-------|-6---------------6-------|
B|-----6-------6-------6---|-----6-------6-------6---|-----6-------6-------6---|-----6-------6-------6---|
G|---------6---------------|---------8---------------|---------6---------------|---------8---------------|
D|-------------------------|-------------------------|-------------------------|-------------------------|
A|-------------------------|-------------------------|-------------------------|-------------------------|
E|-------------------------|-------------------------|-------------------------|-------------------------|

   E   E   E   E   E   E     E   E   E   E   E   E     E   E   E   E   E   E     E   E   E   E   E   E
E|-------------------------|-------------------------|-------------------------|-------------------------|
B|-8---------------8-------|-9---6-------6---9---6---|-10--5-------5---10--5---|-8---------------8-------|
G|-----8---5---8-------8---|---------6---------------|---------5---------------|-----7-------7-------7---|
D|-------------------------|-------------------------|-------------------------|---------8---------------|
A|-------------------------|-------------------------|-------------------------|-------------------------|
E|-------------------------|-------------------------|-------------------------|-------------------------|

   E   E   E   E   E   E     E   E   E   E   E   E     E   E   E   E   E   E     E   E   E   E   E   E
E|-6---------------6-------|-6---------------6-------|-6---------------6-------|-6---------------6-------|
B|-----6-------6-------6---|-----6-------6-------6---|-----6-------6-------6---|-----6-------6-------6---|
G|---------6---------------|---------8---------------|---------6---------------|---------8---------------|
D|-------------------------|-------------------------|-------------------------|-------------------------|
A|-------------------------|-------------------------|-------------------------|-------------------------|
E|-------------------------|-------------------------|-------------------------|-------------------------|

   E   E   E   E   E   E     E   E   E   E   E   E     E   E   E   E   E   E     E   E   E   E   E   E
E|-6---------------6-------|-6---------------6-------|-6---------------6-------|-------------------------|
B|-----6-------6-------6---|-----6-------6-------6---|-----7-------7-------7---|-9---6-------6---9---6---|
G|---------6---------------|---------8---------------|---------6---------------|---------5---------------|
D|-------------------------|-------------------------|-------------------------|-------------------------|
A|-------------------------|-------------------------|-------------------------|-------------------------|
E|-------------------------|-------------------------|-------------------------|-------------------------|

   E   E   E   Q
E|-6--------------------|
B|-----6-------6--------|
G|---------7------------|
D|----------------------|
A|----------------------|
E|----------------------|

1 comment on Silence Before the Storm

Uh oh...

I forgot to label the measures, for the first eighteen measures repeat each once, then for the last three just play them once.