Login or Register to remove this ad. | Advertise Here

Silence Before the Storm (Final Fantasy X) Bass Tab

Submitted: May 27, 2010 by auriplane (Last updated: May 27, 2010)

5
Average: 5 (1 vote)
Download | Listen
Game: Final Fantasy X
Composer(s): Nobuo Uematsu, Junya Nakano, Masashi Hamauzu
Style: Transcription
Series: Final Fantasy

This song is also called Calm Before the Storm

AutoScroll: Slow | Medium | Fast
                                Final Fantasy X - Calm Before the Storm
                                       Composed by Nobuo Uematsu
            
                                Tabbed by Auriplane (crystal@panix.com)


Four-string bass, standard tuning.  Rest for 24 measures at the beginning.


            Part A


   H               E   E    H               E   E    H.                       H              E   S  S
G |------------------------|10--------------L---10--|8-----------------------|------------------------|
D |8---------------L---8---|------------------------|------------------------|8--------------L---6--7-|
A |------------------------|------------------------|------------------------|------------------------|
E |------------------------|------------------------|------------------------|------------------------|


   H               E   E    H               E   S S  Q       H                Q       H
G |------------------------|10--------------L--10-11|12----------------------|------------------------|
D |8---------------L---8---|------------------------|--------10--------------|L-----------------------|
A |------------------------|------------------------|------------------------|--------10--------------|
E |------------------------|------------------------|------------------------|------------------------|
                                       
                                       
   H               E   E    H               E   E    H.                       H               E   S S
G |------------------------|10--------------L---10--|8-----------------------|------------------------|
D |8---------------L---8---|------------------------|------------------------|8---------------L-------|
A |------------------------|------------------------|------------------------|-------------------11-10|
E |------------------------|------------------------|------------------------|------------------------|
                                       
                                       
   H               E   E    H               Q        H.                       H.           
G |------------------------|------------------------|------------------------|------------------------|
D |------------------------|----------------6-------|8-----------------------|------------------------|
A |9---------------L---9---|8-----------------------|------------------------|------------------------|
E |------------------------|------------------------|------------------------|6-----------------------|


                                        - Rest for two measures -

            Part B


   H               E   E    H               Q        H               E   E    H               Q       
G |------------------------|7-----------------------|------------------------|------------------------|
D |8---------------L---10--|----------------8-------|------------------------|----------------10------|
A |------------------------|------------------------|8---------------L---10--|11----------------------|
E |------------------------|------------------------|------------------------|------------------------|
                                                                      
                                                                      
   H               E   E    H               Q        H.                       E   E   E   E   E   E     
G |------------------------|7-----------------------|------------------------|----12--10------7---8---|
D |8---------------L---10--|----------------8-------|------------------------|------------------------|
A |------------------------|------------------------|8-----------------------|------------------------|
E |------------------------|------------------------|------------------------|------------------------|


   Q       Q       E   E    H               Q        H               E   E    H               Q        
G |10----------------------|7-----------------------|------------------------|------------------------|
D |--------8-------L---10--|----------------8-------|------------------------|----------------10------|
A |------------------------|------------------------|8---------------L---10--|11----------------------|
E |------------------------|------------------------|------------------------|------------------------|
                                                                                                     
                                                                                                     
   H               E   E    H               Q        H               E   E    Q       Q       Q        
G |------------------------|------------------------|------------------------|------------------------|
D |11--------------L-------|------------------------|--------------------11--|11------8---------------|
A |--------------------11--|11--------------10------|9---------------L-------|----------------9-------|
E |------------------------|------------------------|------------------------|------------------------|


   H               Q        H               Q        H               Q        H.                        
G |------------------------|------------------------|------------------------|------------------------|
D |----------------10------|10----------------------|----------------10------|10----------------------|
A |8-----------------------|------------------------|8-----------------------|------------------------|
E |------------------------|----------------8-------|------------------------|------------------------|


            Now, play part A again, including the two measure rest.



Duration Legend
---------------
W - whole
H - half
Q - quarter
E - 8th
S - 16th
. - note dotted


Tablature Legend
----------------
L - tied note