Login or Register to remove this ad. | Advertise Here

People of the North (Final Fantasy X) Guitar Tab

Submitted: Aug 22, 2010 by Daugreano (Last updated: Aug 22, 2010)

4.5
Average: 4.5 (2 votes)
Download | Listen
Game: Final Fantasy X
Composer(s): Nobuo Uematsu, Junya Nakano, Masashi Hamauzu
Style: Alternate picking, Transcription
Series: Final Fantasy

AutoScroll: Slow | Medium | Fast
Song: People Of The North
Game: Final Fantasy X
Composer: Nobuo Uematsu
Tabbed by: Daugreano

Guitar(preferably electric): 

   H     H       H.     Q      Q.    E   H       W        H     H       H.     Q
E|-------------|-------------|-----------------|--------|-------------|-------------|
B|-------------|-------------|-----------------|--------|-------------|-------------|
G|-------------|-------------|-----------------|--------|-------------|-------------|
D|-------------|-3------1----|-----------------|--------|-------------|-3------1----|
A|-3-----1-----|-------------|-3-----4---1-----|-L------|-3-----1-----|-------------|
E|-------------|-------------|-----------------|--------|-------------|-------------|

   E   E   H.       W        H     H       H.     Q      Q.    E   H       W 
E|----------------|--------|-------------|-1-----------|-----------------|--------|
B|----------------|--------|-1-----------|--------4----|-1-----2---------|--------|
G|---------1------|-L------|-------3-----|-------------|-----------3-----|-L------|
D|----------------|--------|-------------|-------------|-----------------|--------|
A|-3---4----------|--------|-------------|-------------|-----------------|--------|
E|----------------|--------|-------------|-------------|-----------------|--------|

   H     H       H.     Q      E   E   H.       W
E|-------------|-1-----------|---------4------|-L------|
B|-1-----------|--------4----|-1---2----------|--------|
G|-------3-----|-------------|----------------|--------|
D|-------------|-------------|----------------|--------|
A|-------------|-------------|----------------|--------|
E|-------------|-------------|----------------|--------|

Repeat that first part, then play this next part 2x as well...

   W        H     H       W
E|--------|-------------|-4------|
B|--------|-------4-----|--------|
G|-3------|-L-----------|--------|
D|--------|-------------|--------|
A|--------|-------------|--------|
E|--------|-------------|--------|

   H     H       W        H     H       W        H     H       W        H     H
E|-L-----6-----|--------|-------4-----|--------|-------------|--------|-------------|
B|-------------|-6------|-L-----------|-4------|-L-----2-----|--------|-------4-----|
G|-------------|--------|-------------|--------|-------------|-3------|-L-----------|
D|-------------|--------|-------------|--------|-------------|--------|-------------|
A|-------------|--------|-------------|--------|-------------|--------|-------------|
E|-------------|--------|-------------|--------|-------------|--------|-------------|

   W        H     H       W        H     H       W        H     H
E|-4------|-L-----6-----|--------|-------4-----|--------|-------------|
B|--------|-------------|-6------|-L-----------|-4------|-L-----2-----|
G|--------|-------------|--------|-------------|--------|-------------|
D|--------|-------------|--------|-------------|--------|-------------|
A|--------|-------------|--------|-------------|--------|-------------|
E|--------|-------------|--------|-------------|--------|-------------|

Then repeat the whole thing...Oh yeah, the last measure is only 
played during the first time through the second part.

1 comment on People of the North

Nice and simple thx

5

Nice and simple thx