Login or Register to remove this ad. | Advertise Here

Hopeless Desire (Final Fantasy X) Guitar Tab

Submitted: Jan 22, 2011 by ThulsaDoom

5
Average: 5 (5 votes)
Download | Listen
Game: Final Fantasy X
Composer(s): Nobuo Uematsu, Junya Nakano, Masashi Hamauzu
Style: Arrangement, Fingerstyle
Series: Final Fantasy

AutoScroll: Slow | Medium | Fast
Hopeless Desire

arranged by ThulsaDoom

Composer: Nobuo Uematsu
Game: Final Fantasy X
Copyright: 2001 Square Co., Ltd.

Tuning : Standard
Capo: 0

Tab by ThulsaDoom

Date: 01/22/11



     H        Q       H        Q       H        Q       H        Q     
E||----------------|--5-------------|----------------|--5-------------|
B||----------------|----------------|----------------|----------------|
G||----------------|--2-------------|----------------|--2-------------|
D||----------------|----------------|----------------|----------------|
A||--0--------0----|--0--------0----|--0--------0----|--0--------0----|
E||----------------|----------------|----------------|----------------|


  H        Q       H        Q       H        Q       H        Q     
----------------|----------------|--0-------------|----------------|
--3-------------|--0-------------|--0-------------|----------------|
--2-------------|--2-------------|--1-------------|----------------|
--3-------------|--3-------------|----------------|----------------|
----------------|----------------|----------------|----------------|
--1--------1----|--1--------1----|--0--------0----|--0--------0----|


  H        Q       H        Q       H        Q       H        Q     
----------------|----------------|--0-------------|----------------|
--3-------------|--0-------------|--0-------------|----------------|
--2-------------|--2-------------|--1-------------|----------------|
--3-------------|--3-------------|----------------|----------------|
----------------|----------------|----------------|----------------|
--1--------1----|--1--------1----|--0--------0----|--0--------0----|


  H        Q       H        Q       H        Q       H        Q     
--0-------------|--0-------------|--0-------------|--0-------------|
--3-------------|--1-------------|--0-------------|--1-------------|
--2-------------|--2-------------|--2-------------|--2-------------|
----------------|----------------|----------------|----------------|
--0--------0----|--0--------0----|--0--------0----|--0--------0----|
----------------|----------------|----------------|----------------|


  H        Q       H        Q       H        Q       H        Q     
--0-------------|--0-------------|--0-------------|--0-------------|
--3-------------|--1-------------|--0-------------|--1-------------|
--2-------------|--2-------------|--2-------------|--2--------2----|
----------------|----------------|----------------|----------------|
--0--------0----|--0--------0----|--0--------0----|--0--------0----|
----------------|----------------|----------------|----------------|


  H        Q       H        Q       H        Q       H        Q     
----------------|--0--------3----|--2-------------|--1-------------|
--1--------3----|--1-------------|--3-------------|--3-------------|
--2-------------|----------------|----------------|----------------|
----------------|----------------|----------------|----------------|
--0--------0----|--0-------------|--0--------0----|--0--------0----|
----------------|----------------|----------------|----------------|


  H        Q       H        E  E     H        Q       Q.     E  Q     
--0-------------|-----------------|----------------|-----------------|
--1--------1----|--1--------0--1--|--3--------0----|-----------------|
----------------|--2--------------|--0-------------|--0---------0----|
----------------|--3--------------|----------------|---------2-------|
--0-------------|--0--------------|--0-------------|-----------------|
----------------|-----------------|----------------|--3------0-------|


  Q    E  E  E  E     E  E  E   E  Q       Q    E   E  E  E   
----------------0--|--------------------|--------------0--3--|
----------0--1-----|--3--1--0h--1-------|-------1h--3--------|
--2----2-----------|--2------------2----|--------------------|
-------------------|--------------------|--------------------|
--0----------0-----|--0-----------------|--0-----------0-----|
-------------------|--------------------|--------------------|


  E  E  E   E  Q       H        Q       H        Q       H        Q     
--2--3--2p--0-------|----------------|--0--------3----|--2-------------|
--3-----------------|--1--------3----|--1-------------|--3-------------|
---------------2----|--2-------------|----------------|----------------|
--------------------|----------------|----------------|----------------|
--0------------0----|--0--------0----|--0-------------|--0--------0----|
--------------------|----------------|----------------|----------------|


  H        Q       H        Q       H        E   E     H        Q     
--1-------------|--0-------------|------------------|----------------|
--3-------------|--1--------1----|--1--------0h--1--|--3--------0----|
----------------|----------------|--2---------------|--0-------------|
----------------|----------------|--3---------------|----------------|
--0--------0----|--0-------------|--0---------------|--0-------------|
----------------|----------------|------------------|----------------|


  Q.     E  Q       Q    Q    Q       H        Q       Q    Q    Q     
-----------------|-------3----2----|--1-------------|-------0---------|
-----------------|-------1----0----|--1-------------|------------4----|
--0---------0----|--2--------------|----------------|--2----0----3----|
---------2-------|-----------------|----------------|-----------------|
-----------------|--0---------0----|--0--------0----|--0---------0----|
--3------0-------|-----------------|----------------|-----------------|


  H        Q       H        Q       H        Q       H        Q     
----------------|----------------|----------------|----------------|
--3-------------|----------------|----------------|----------------|
--2-------------|--0-------------|----------------|--2-------------|
----------------|----------------|-----------2----|----------------|
--0--------0----|----------------|----------------|--0--------0----|
----------------|--3--------3----|--3--------0----|----------------|


  H        Q       H        Q       H        Q       H        Q     
----------------|----------------|----------------|----------------|
----------------|----------------|----------------|----------------|
----------------|--0-------------|----------------|--2-------------|
----------------|----------------|-----------2----|----------------|
--0--------0----|----------------|----------------|--0--------0----|
----------------|--3--------3----|--3--------0----|----------------|


  H        Q       H        Q       H        Q       H        Q     
----------------|----------------|----------------|----------------|
----------------|----------------|----------------|--1--------3----|
----------------|----------------|-----------2----|--2-------------|
----------------|----------------|----------------|----------------|
--0--------0----|--0--------0----|--0--------0----|--0--------0----|
----------------|----------------|----------------|----------------|


  H        Q       H        Q       H        Q       H        Q     
--0--------3----|--2-------------|--1-------------|--0-------------|
--1-------------|--3-------------|--3-------------|--1--------1----|
----------------|----------------|----------------|----------------|
----------------|----------------|----------------|----------------|
--0-------------|--0--------0----|--0--------0----|--0-------------|
----------------|----------------|----------------|----------------|


  H        E  E     H        Q       Q.     E  Q       Q    E  E  E  E   
-----------------|----------------|-----------------|----------------0--|
--1--------0--1--|--3--------0----|-----------------|----------0--1-----|
--2--------------|--0-------------|--0---------0----|--2----2-----------|
--3--------------|----------------|---------2-------|-------------------|
--0--------------|--0-------------|-----------------|--0----------0-----|
-----------------|----------------|--3------0-------|-------------------|


  E  E  E   E  Q       Q    E   E  E  E     E  E  E   E  Q       H        Q     
--------------------|--------------0--3--|--2--3--2p--0-------|----------------|
--3--1--0h--1-------|-------1h--3--------|--3-----------------|--1--------3----|
--2------------2----|--------------------|---------------2----|--2-------------|
--------------------|--------------------|--------------------|----------------|
--0-----------------|--0-----------0-----|--0------------0----|--0--------0----|
--------------------|--------------------|--------------------|----------------|


  H        Q       H        Q       H        Q       H        Q     
--0--------3----|--2-------------|--1-------------|--0-------------|
--1-------------|--3-------------|--3-------------|--1--------1----|
----------------|----------------|----------------|----------------|
----------------|----------------|----------------|----------------|
--0-------------|--0--------0----|--0--------0----|--0-------------|
----------------|----------------|----------------|----------------|


  H        E   E     H        Q       Q.     E  Q       Q    Q    Q     
------------------|----------------|-----------------|-------3----2----|
--1--------0h--1--|--3--------0----|-----------------|-------1----0----|
--2---------------|--0-------------|--0---------0----|--2--------------|
--3---------------|----------------|---------2-------|-----------------|
--0---------------|--0-------------|-----------------|--0---------0----|
------------------|----------------|--3------0-------|-----------------|


  H        Q       Q    Q    Q       H        Q       H        Q     
--1-------------|-------0---------|----------------|----------------|
--1-------------|------------4----|--3-------------|----------------|
----------------|--2----0----3----|--2-------------|--0-------------|
----------------|-----------------|----------------|----------------|
--0--------0----|--0---------0----|--0--------0----|----------------|
----------------|-----------------|----------------|--3--------3----|


  H        Q       H        Q       H        Q       H        Q     
----------------|----------------|----------------|----------------|
----------------|----------------|----------------|----------------|
----------------|--2-------------|----------------|--0-------------|
-----------2----|----------------|----------------|----------------|
----------------|--0--------0----|--0--------0----|----------------|
--3--------0----|----------------|----------------|--3--------3----|


  H        Q       H        Q       H        Q       H        Q     
----------------|----------------|----------------|----------------|
----------------|----------------|----------------|----------------|
----------------|--2-------------|----------------|----------------|
-----------2----|----------------|----------------|----------------|
----------------|--0--------0----|--0--------0----|--0--------0----|
--3--------0----|----------------|----------------|----------------|


  ^              
  H.             
---------------||
---------------||
--2------------||
--2------------||
--0------------||
---------------||




Duration Legend
---------------
W - whole
H - half
Q - quarter
E - 8th
S - 16th
T - 32nd
X - 64th
. - note dotted
|-n-|  - n-tuplets


Tablature Legend
----------------
L - tied note
x - dead note
g - grace note
(n) - ghost note
> - accentuded note
NH - natural harmonic
AH - artificial harmonic
TH - tapped harmonic
SH - semi harmonic
PH - pitch harmonic
h - hammer on
p - pull off
b - bend
br - bendRelease
pb - preBend
pbr - preBendRelease
brb - bendReleaseBend
\n/ - tremolo bar dip
\n - tremolo bar dive
-/n - tremolo bar Release up
/n\ - tremolo bar inverted dip
/n - tremolo bar return
-\n - tremolo bar Release down
S - shift slide
s - legato slide
/ -  slide into from below or out of upwards
\ -  slide into from above or out of downwards
~ - vibrato
W - wide vibrato
tr - trill
TP - tremolo picking
T - tapping
S - slap
P - pop
< - fade in
^ - brush up
v - brush down

4 comments on Hopeless Desire

^.^

Very good! i like playing this! it is so pretty!

One of my favorites from the

One of my favorites from the game. Sounds great, many thanks

Amazing

5

Love this tab such complex tones but so easy to play :)

love this melody!

5

love this melody!