Login or Register to remove this ad. | Advertise Here

Hopeless Desire (Final Fantasy X) Guitar Tab

Submitted: Oct 09, 2009 by Dekurian

5
Average: 5 (2 votes)
Download | Listen
Game: Final Fantasy X
Composer(s): Nobuo Uematsu, Junya Nakano, Masashi Hamauzu
Style: Transcription
Series: Final Fantasy

AutoScroll: Slow | Medium | Fast
Hopeless Desire

Composer: Nobuo Uematsu
Game: Final Fantasy X
Copyright: 2001 Square C., Ltd

Tuning: Standard Gtr

Tab by Dekurian
Date 10/08/09


How To Play:
Intro
Melody I    \
Melody II    \   Repeat~
Melody I     /   it's endless
Interlude   /


Intro
e|---------------------------------------------------------------------------|
B|---------------------------------------------------------------------------|
G|---------------------------------------------------------------------------|
D|-------7-----------7-----0-----2---0-----2---0---------------0-------------|
A|-----------------------------2---------2---------3---2---3-------3---2---3-|
E|-5---5-5---5-5---5-5---5---------------------------------------------------|

Melody I
e|-------------------------------------------------------|
B|-------------------------------------------------------|
G|-------------0-----------------------------------------|
D|-------0-2-----4---3---2-------------0-----------------|
A|-0-3-----------------------3-3---2-3-----2-----------0-|
E|-------------------------------------------3---0-3-----|


Melody II
e|-------0------------------0-3-2-0---0---|
B|---0-1---3-1-0-1------1-3---------3---1-|
G|-2---------------2----------------------|
D|----------------------------------------|
A|----------------------------------------|
E|----------------------------------------|

Interlude
e|-3--2--1---0-----------------------------------------------------------------|
B|--------------4--3-----------------------------------------------------------|
G|---------------------0-----------------------0-------------------------------|
D|-------------------------------2-7---------------------2-7-------------------|
A|-----------------------------------------------------------------------------|
E|---------------------3---3-3---0-5---5-5---5-3---3-3---0-5---5-5---5-5---5-5-|


2 comments on Hopeless Desire

fairly easy and fun

fairly easy and fun

I like this song

5

Nice tab man, i like this song i will play it everu day XD. i just like the sound of FF music its sooo magical :P