Login or Register to remove this ad. | Advertise Here

Between Ordeals (Final Fantasy X) Guitar Tab

Submitted: May 30, 2010 by Daugreano (Last updated: May 30, 2010)

5
Average: 5 (1 vote)
Download | Listen
Game: Final Fantasy X
Composer(s): Nobuo Uematsu, Junya Nakano, Masashi Hamauzu
Style: Alternate picking, Transcription
Series: Final Fantasy

This song is also called Cloister of Trials

AutoScroll: Slow | Medium | Fast
Song: Between Ordeals
Game: Final Fantasy X
Composer(s): Nobuo Uematsu, Junya Nakano, Masashi Hamauzu
Tabbed by : Daugreano 


Guitar 
                                                  .
   H     Q    Q      H     H       H     H       H      Q      H     Q    Q      H     H
E|-5-----0----1----|-3-----6-----|-5-----------|-0------1----|-5-----0----1----|-3-----6-----|
B|-----------------|-------------|-------3-----|-------------|-----------------|-------------|
G|-----------------|-------------|-------------|-------------|-----------------|-------------|
D|-----------------|-------------|-------------|-------------|-----------------|-------------|
A|-----------------|-------------|-------------|-------------|-----------------|-------------|
E|-----------------|-------------|-------------|-------------|-----------------|-------------|

                  .
   H     H       H      Q      H     H       W       W         H     Q    Q      H     H
E|-5-----10----|-6------3----|-5-----13----|-10-----|--------|-5-----0----1----|-3-----6-----|
B|-------------|-------------|-------------|--------|--------|-----------------|-------------|
G|-------------|-------------|-------------|--------|--------|-----------------|-------------|
D|-------------|-------------|-------------|--------|--------|-----------------|-------------|
A|-------------|-------------|-------------|--------|--------|-----------------|-------------|
E|-------------|-------------|-------------|--------|--------|-----------------|-------------|

                  .                                                           .
   H     H       H      Q      H     Q    Q      H     H       H     H       H      Q
E|-5-----------|-0------1----|-5-----0----1----|-3-----6-----|-5-----10----|-6------5----|
B|-------3-----|-------------|-----------------|-------------|-------------|-------------|
G|-------------|-------------|-----------------|-------------|-------------|-------------|
D|-------------|-------------|-----------------|-------------|-------------|-------------|
A|-------------|-------------|-----------------|-------------|-------------|-------------|
E|-------------|-------------|-----------------|-------------|-------------|-------------|

                                    .             .
   H     H       W        W        H      Q      H      Q      H     H       Q    Q    H
E|-5-----13----|-10-----|--------|-0------1----|-3------1----|-0-----1-----|-0---------------|
B|-------------|--------|--------|-------------|-------------|-------------|------3----------|
G|-------------|--------|--------|-------------|-------------|-------------|-----------3-----|
D|-------------|--------|--------|-------------|-------------|-------------|-----------------|
A|-------------|--------|--------|-------------|-------------|-------------|-----------------|
E|-------------|--------|--------|-------------|-------------|-------------|-----------------|

                      .             .             .
   W        W        H      Q      H      Q      H      Q      Q    Q    Q    Q  
E|--------|--------|-0------1----|-3------1----|-0-----------|-0----1----3----5----|
B|--------|--------|-------------|-------------|--------3----|---------------------|
G|-2------|-3------|-------------|-------------|-------------|---------------------|
D|--------|--------|-------------|-------------|-------------|---------------------|
A|--------|--------|-------------|-------------|-------------|---------------------|
E|--------|--------|-------------|-------------|-------------|---------------------|


   W
E|-6------|
B|--------|
G|--------|
D|--------|
A|--------|
E|--------|