Login or Register to remove this ad. | Advertise Here

Between Ordeals (Final Fantasy X) Guitar Tab

Submitted: Apr 27, 2010 by ThulsaDoom

5
Average: 5 (10 votes)
Download | Listen
Game: Final Fantasy X
Composer(s): Nobuo Uematsu, Junya Nakano, Masashi Hamauzu
Style: Arrangement, Fingerstyle, Tapped harmonics
Series: Final Fantasy

AutoScroll: Slow | Medium | Fast

Between Ordeals
arranged by ThulsaDoom

Composer: Nobuo Uematsu
Game: Final Fantasy X
Copyright: 2001 Square Co., Ltd.

Tuning : Standard
Capo: 5

Tab by ThulsaDoom

Date: 04/26/10


e----------------------------------------------------------------------------------|
B--------1---------1-------1-----------------1--------1--------1-------------------|
G------2---------2-------2-----------------2--------2--------2---------------------|
D----2---------3-------2-----------------2--------3--------2-----------------------|
A--0-----------------0-----------------0-----------------0-------------------------|
E-----------1----------------------------------1-----------------------------------|


e----------------------------------------------------------------------------------|
B--------1--------1--------1-----------1--------1-------1------1-------------------|
G------2--------2--------2-----------2--------2-------2------2---------------------|
D----2--------3--------2-----------2--------3-------2------3-----------------------|
A--0-----------------0-----------0----------------0--------------------------------|
E----------1------------------------------1--------------1-------------------------|


e--0-----------1----0-----------------0---------------1---------5-----1------------|
B------0-1-3-----------------0-----1-------0--1--3---------5----5------------3-----|
G------------------------2---------2---------------------------------------2-------|
D----2-------0---3-----2---2---0-3-------2----------0---3----------------3---------|
A--0----------------0-----------------0-----------------------7----7---------------|
E----------1-----------------1-------------------1---------5----------1------------|


e-------8-----5-------------------------------8-----5------------------------------|
B--5----5------------1-------1-------1--5-----5------------1--------1-------1------|
G------------------2-------2-------2---------------------2--------2-------2--------|
D----------------3-------2-------2---------------------3--------2-------2----------|
A----7-----7-----------0-------------------7-----7------------0--------------------|
E--5----------1-------------------------5-----------1------------------------------|


e--0-----------1----0-----------------0---------------1---------5-----1------------|
B------0-1-3-----------------0-----1-------0--1--3---------5----5------------3-----|
G------------------------2---------2---------------------------------------2-------|
D----2-------0---3-----2---2---0-3-------2----------0---3----------------3---------|
A--0----------------0-----------------0-----------------------7----7---------------|
E----------1-----------------1-------------------1---------5----------1------------|


e-------8-----5-------------------------------8-----5------------------------------|
B--5----5------------1-------1-------1--5-----5------------1--------1-------1------|
G------------------2-------2-------2---------------------2--------2-------2--------|
D----------------3-------2-------2---------------------3--------2-------2----------|
A----7-----7-----------0-------------------7-----7------------0--------------------|
E--5----------1-------------------------5-----------1------------------------------|


e-----------------------------------------------0---------------1------------------|
B--0------1--3--------1--0-----1------0---------------0-1-0-----------0-1-0--------|
G-------0--------------------------------2---2------2-------2-------2-------2------|
D-----0---------0--3--------0-----0--------3------2-----------2---3-----------3----|
A-----------------------------------------------0----------------------------------|
E--3---------1-----------3------------1-------------------------1------------------|


e------------------------------------------0--1--------1---------------------------|
B--0------1--3-------1--0---------0--1--3------------1---1-------------0-----------|
G-------0-------------------0--2-------------------3-------3---------3-------------|
D-----0---------0-3-------0-------------0--------3-----------3-----6---------------|
A---------------------------------------------1------------------6------knock knock|
E--3---------1----------3---------1----------------------------4-------------------|

									   TH---|	
e----------------------------------------------------------------------------------|
B--------1--------1-------1---------------1--------1--------1-3p1---1--------1-----|
G------2--------2-------2---------------2--------2--------2------------2-------2---|
D----2--------3-------2---------------2--------3--------2---------3----2-----------|
A--0----------------0---------------0-----------------0----------------0-----------|
E-----------1------------------------------1---------------------------------------|
									    13 14

Tablature Legend
----------------
L - tied note
x - dead note
g - grace note
(n) - ghost note
> - accentuded note
NH - natural harmonic
AH - artificial harmonic
TH - tapped harmonic
SH - semi harmonic
PH - pitch harmonic
h - hammer on
p - pull off
b - bend
br - bendRelease
pb - preBend
pbr - preBendRelease
brb - bendReleaseBend
\n/ - tremolo bar dip
\n - tremolo bar dive
-/n - tremolo bar Release up
/n\ - tremolo bar inverted dip
/n - tremolo bar return
-\n - tremolo bar Release down
S - shift slide
s - legato slide
/ - slide into from below or out of upwards
\ - slide into from above or out of downwards
~ - vibrato
W - wide vibrato
tr - trill
TP - tremolo picking
T - tapping
S - slap
P - pop
< - fade in
^ - brush up
v - brush down

2 comments on Between Ordeals

I like this tab because the

I like this tab because the best way to play it is using your thumb a lot fretting on the E string. Good practice on that. The knocking is a great touch too.

Nice! I wonder about those

5

Nice! I wonder about those 1st to 5th position switches, but there are classical pieces that have similar.