Login or Register to remove this ad. | Advertise Here

Battle Theme (Final Fantasy X) Guitar Tab

Submitted: May 24, 2011 by Ranulf

5
Average: 5 (2 votes)
Download | Listen
Game: Final Fantasy X
Composer(s): Nobuo Uematsu, Junya Nakano, Masashi Hamauzu
Style: Transcription
Series: Final Fantasy

AutoScroll: Slow | Medium | Fast
Battle Theme
Final Fantasy X
Playstation 2
Tabbed by John Adams
Composed by Nobuo Uematsu
5/15/11


e||---------------------------------------9--9-9--9-9-----12---------------|
B||--9--9-9--9-9-----12-10-----------------------------12----10--9---------|
G||---------------11-----9--8---------------------------------------11---9-|
D||----------------------------11---9--------------------------------------|
A||------------------------------------------------------------------------|
E||------------------------------------------------------------------------|

|----------------------------------------------12--12-12--12-12--12--12---12--12-12--12-12--14--14-|
|--9--9-9--9-9--10--10---9--9-9--9-9--12--10----9---9--9---9--9--10--10----9---9--9---9--9--12--10-|
|--------------------------------------------------------------------------------------------------|
|--------------------------------------------------------------------------------------------------|
|--------------------------------------------------------------------------------------------------|
|--------------------------------------------------------------------------------------------------|

||------------------------------------------------------------------------------------------------------|
||---14--16--17--16--14----------12--14--16--14--12-16--------------------------------------------------|
||*---------------------16-14--------------------------13----14--16--18--16--14-13-------------------13-|
||*--------------------------------------------------------------------------------16---14--13---13-----|
||------------------------------------------------------------------------------------------------------|
||------------------------------------------------------------------------------------------------------|

|---------------------------------------------------------------------------------------|
|--14--16--17--16--14----------12--14--16--14--12-16------------------------------------|
|---------------------16-14--------------------------13----14--16--18--16--14-13-12-----|
|---------------------------------------------------------------------------------------|
|---------------------------------------------------------------------------------------|
|---------------------------------------------------------------------------------------|

|--------------12--------------16--16-14--16-12-----12------------16--------------------------------------|
|------13--14------16-14-16----------------------16----14-12--10------------------------------------------|
|--15-----------------------------------------------------------------------------------------------------|
|-----------------------------------------------------------------------16--14-16-13-----13------------16-|
|-------------------------------------------------------------------------------------16----14-12--11-----|
|---------------------------------------------------------------------------------------------------------|

|------------------------------------------------------------------------------------------|
|--------------------------------------------------------------------------12----12--14----|
|-----------------------------------------------------------------------------14-----------|
|-------------13-----13-14--13-14-16--14-16---------13-14--13-14-16--14-16-----------------|
|--12---14-16-----16--------------------------14-16----------------------------------------|
|------------------------------------------------------------------------------------------|

|------12----16--14----12--14-----------------------------------------------------------14--14--14-16-16--||
|--16----------------------------16--16--16-14-14--------------------16--16--16-17-17---------------------||
|--------------------------------------------------17--17--17-18-18--------------------------------------*||
|--------------------------------------------------------------------------------------------------------*||
|---------------------------------------------------------------------------------------------------------||
|---------------------------------------------------------------------------------------------------------||
Repeat as much as you want