Login or Register to remove this ad. | Advertise Here

Auron's Theme (Final Fantasy X) Guitar Tab

Submitted: May 29, 2010 by Daugreano

0
Download | Listen
Game: Final Fantasy X
Composer(s): Nobuo Uematsu, Junya Nakano, Masashi Hamauzu
Style: Alternate picking, Transcription
Series: Final Fantasy

AutoScroll: Slow | Medium | Fast
Song: Auron's Theme
Game: Final Fantasy X
Artist: Nobuo Uematsu, Junya Nakano, Masashi Hamauzu

Tabbed by: Daugreano


Electric Guitar:
    .                  .                  .                  .                  .
   H          S  S    H          S  S    H          S  S    H          S  S    H          S  S  
E|-18---------14-18-|-16---------18-16-|-18---------20-21-|-20---------18-16-|-18---------14-18-|
B|------------------|------------------|------------------|------------------|------------------|
G|------------------|------------------|------------------|------------------|------------------|
D|------------------|------------------|------------------|------------------|------------------|
A|------------------|------------------|------------------|------------------|------------------|
E|------------------|------------------|------------------|------------------|------------------|

    .                  .                  .                  .
   H          S  S    H          S  S    H          S  S    H                        S  S
E|-16---------14-13-|-14------------14-|-13---------------|-------------|------------18-16-|
B|------------------|------------16----|------------16-14-|-16----------|------------------|
G|------------------|------------------|------------------|-------------|------------------|
D|------------------|------------------|------------------|-------------|------------------|
A|------------------|------------------|------------------|-------------|------------------|
E|------------------|------------------|------------------|-------------|------------------|


    .                  .                  .                  .                  .
   H          S  S    H          S  S    H          S  S    H          S  S    H          S  S
E|-18---------14-18-|-16---------18-16-|-18---------20-21-|-20---------18-16-|-18---------14-18-|
B|------------------|------------------|------------------|------------------|------------------|
G|------------------|------------------|------------------|------------------|------------------|
D|------------------|------------------|------------------|------------------|------------------|
A|------------------|------------------|------------------|------------------|------------------|
E|------------------|------------------|------------------|------------------|------------------|

    .                  .                  .                  .
   H          S  S    H          S  S    H          S  S    H
E|-16---------14-13-|-14------------14-|-13---------------|-------------|
B|------------------|------------16----|------------16-14-|-16----------|
G|------------------|------------------|------------------|-------------|
D|------------------|------------------|------------------|-------------|
A|------------------|------------------|------------------|-------------|
E|------------------|------------------|------------------|-------------|