Login or Register to remove this ad. | Advertise Here

A Secret Sleeping In The Deep Sea (Final Fantasy VII) Guitar Tab

Submitted: Jan 20, 2010 by Jamming Ninja (Last updated: Jan 20, 2010)

5
Average: 5 (5 votes)
Download | Listen
Game: Final Fantasy VII
Composer(s): Nobuo Uematsu
Style: 2 or more instruments, Arrangement, Fingerstyle
Series: Final Fantasy

AutoScroll: Slow | Medium | Fast
                      A Secret Sleeping In The Deep Sea                         
                          (Arranged by Jammin' Ninja)
                               Final Fantasy VII


                                                                   Nobuo Uematsu
Base Guitar



     E  E  E  E  E  E  E  E     E  E  E  E  E  E  E  E   
E||--4--3--4--3--4--3--4--3--|--4--3--4--3--4--3--4--3--|
B||--6-----6-----6-----6-----|--6-----6-----6-----6-----|
G||--6-----6-----6-----6-----|--6-----6-----6-----6-----|
D||--------------------------|--------------------------|
A||--------------------------|--------------------------|
E||--------------------------|--------------------------|


  E  E  E  E  E  E  E  E     E  E  E  E  E  E  E  E   
--3--1--3--1--3--1--3--1--|--3--1--3--1--3--1--3--1--|
--3-----3-----3-----3-----|--3-----3-----3-----3-----|
--3-----3-----3-----3-----|--3-----3-----3-----3-----|
--------------------------|--------------------------|
--------------------------|--------------------------|
--------------------------|--------------------------|


  E  E  E  E  E  E  E  E     E  E  E  E  E  E  E  E   
--4--3--4--3--4--3--4--3--|--4--3--4--3--4--3--4--3--|
--6-----6-----6-----6-----|--6-----6-----6-----6-----|
--6-----6-----6-----6-----|--6-----6-----6-----6-----|
--------------------------|--------------------------|
--------------------------|--------------------------|
--------------------------|--------------------------|


  E  E  E  E  E  E  E  E     E  E  E  E  E  E  E  E   
--3--1--3--1--3--1--3--1--|--3--1--3--1--3--1--3--1--|
--3-----3-----3-----3-----|--3-----3-----3-----3-----|
--3-----3-----3-----3-----|--3-----3-----3-----3-----|
--------------------------|--------------------------|
--------------------------|--------------------------|
--------------------------|--------------------------|


  E  E  E  E  E  E  E  E     E  E  E  E  E  E  E  E   
--------------------------|--------------------------|
--4--3--4--3--4--3--4--3--|--4--3--4--3--4--3--4--3--|
--5-----5-----5-----5-----|--5-----5-----5-----5-----|
--6-----6-----6-----6-----|--6-----6-----6-----6-----|
--------------------------|--------------------------|
--------------------------|--------------------------|


  E  E  E  E  E  E  E  E     E  E  E  E  E  E  E  E   
--------------------------|--------------------------|
--3--1--3--1--3--1--3--1--|--3--1--3--1--3--1--3--1--|
--2-----2-----2-----2-----|--2-----2-----2-----2-----|
--3-----3-----3-----3-----|--3-----3-----3-----3-----|
--------------------------|--------------------------|
--------------------------|--------------------------|


  E  E  E  E  E  E  E  E     E  E  E  E  E  E  E  E   
--------------------------|--------------------------|
--4--3--4--3--4--3--4--3--|--4--3--4--3--4--3--4--3--|
--5-----5-----5-----5-----|--5-----5-----5-----5-----|
--6-----6-----6-----6-----|--6-----6-----6-----6-----|
--------------------------|--------------------------|
--------------------------|--------------------------|


  E  E  E  E  E  E  E  E     E  E  E  E  E  E  E  E   
--------------------------|--------------------------|
--3--1--3--1--3--1--3--1--|--3--1--3--1--3--1--3--1--|
--2-----2-----2-----2-----|--2-----2-----2-----2-----|
--3-----3-----3-----3-----|--3-----3-----3-----3-----|
--------------------------|--------------------------|
--------------------------|--------------------------|


  E  E  E  E  E  E  E  E     E  E  E  E  E  E  E  E   
--------------------------|--------------------------|
--4--3--4--3--4--3--4--3--|--4--3--4--3--4--3--4--3--|
--5-----5-----5-----5-----|--5-----5-----5-----5-----|
--6-----6-----6-----6-----|--6-----6-----6-----6-----|
--------------------------|--------------------------|
--------------------------|--------------------------|


  E  E  E  E  E  E  E  E     E  E  E  E  E  E  E  E   
--------------------------|--------------------------|
--3--1--3--1--3--1--3--1--|--3--1--3--1--3--1--3--1--|
--2-----2-----2-----2-----|--2-----2-----2-----2-----|
--3-----3-----3-----3-----|--3-----3-----3-----3-----|
--------------------------|--------------------------|
--------------------------|--------------------------|


  E  E  E  E  E  E  E  E     E  E  E  E  E  E  E  E   
--------------------------|--------------------------|
--4--3--4--3--4--3--4--3--|--4--3--4--3--4--3--4--3--|
--5-----5-----5-----5-----|--5-----5-----5-----5-----|
--6-----6-----6-----6-----|--6-----6-----6-----6-----|
--------------------------|--------------------------|
--------------------------|--------------------------|


  E  E  E  E  E  E  E  E     E  E  E  E  E  E  E  E   
--------------------------|--------------------------|
--3--1--3--1--3--1--3--1--|--3--1--3--1--3--1--3--1--|
--2-----2-----2-----2-----|--2-----2-----2-----2-----|
--3-----3-----3-----3-----|--3-----3-----3-----3-----|
--------------------------|--------------------------|
--------------------------|--------------------------|


  E  E  E  E  E  E  E  E     E  E  E  E  E  E  E  E   
--------------------------|--------------------------|
--3--1--3--1--3--1--3--1--|--3--1--3--1--3--1--3--1--|
--2-----2-----2-----2-----|--2-----2-----2-----2-----|
--3-----3-----3-----3-----|--3-----3-----3-----3-----|
--------------------------|--------------------------|
--------------------------|--------------------------|


  E  E  E  E  E  E  E  E     E  E  E  E  E  E  E  E   
--------------------------|--------------------------|
--4--3--4--3--4--3--4--3--|--4--3--4--3--4--3--4--3--|
--5-----5-----5-----5-----|--5-----5-----5-----5-----|
--6-----6-----6-----6-----|--6-----6-----6-----6-----|
--------------------------|--------------------------|
--------------------------|--------------------------|


  E  E  E  E  E  E  E  E     E  E  E  E  E  E  E  E   
--------------------------|--------------------------|
--4--3--4--3--4--3--4--3--|--4--3--4--3--4--3--4--3--|
--5-----5-----5-----5-----|--5-----5-----5-----5-----|
--6-----6-----6-----6-----|--6-----6-----6-----6-----|
--------------------------|--------------------------|
--------------------------|--------------------------|


  E  E  E  E  E  E  E  E     E  E  E  E  E  E  E  E   
--------------------------|--------------------------|
--3--1--3--1--3--1--3--1--|--3--1--3--1--3--1--3--1--|
--2-----2-----2-----2-----|--2-----2-----2-----2-----|
--3-----3-----3-----3-----|--3-----3-----3-----3-----|
--------------------------|--------------------------|
--------------------------|--------------------------|


  E  E  E  E  E  E  E  E     E  E  E  E  E  E  E  E   
--------------------------|--------------------------|
--3--1--3--1--3--1--3--1--|--3--1--3--1--3--1--3--1--|
--2-----2-----2-----2-----|--2-----2-----2-----2-----|
--3-----3-----3-----3-----|--3-----3-----3-----3-----|
--------------------------|--------------------------|
--------------------------|--------------------------|


  E  E  E  E  E  E  E  E     E  E  E  E  E  E  E  E   
--0-----0-----0-----0-----|--0-----0-----0-----0-----|
--1--3--1--3--1--3--1--3--|--1--3--1--3--1--3--1--3--|
--2-----2-----2-----2-----|--2-----2-----2-----2-----|
--3-----3-----3-----3-----|--3-----3-----3-----3-----|
--------------------------|--------------------------|
--------------------------|--------------------------|


  E  E  E  E  E  E  E  E     E  E  E  E  E  E  E  E     H        H         
--1-----1-----1-----1-----|--1-----1-----1-----1-----|--------------------|
--2--1--2--1--2--1--2--1--|--2--1--2--1--2--1--2--1--|--3--------1--------|
--1-----1-----1-----1-----|--1-----1-----1-----1-----|--0--------0--------|
--------------------------|--------------------------|--2--------3--------|
--------------------------|--------------------------|--3--------3--------|
--------------------------|--------------------------|--------------------|


  W                   W                                      
-------------------|-------------------|-------------------||
-------------------|-------------------|-------------------||
--3----------------|--L----------------|-------------------||
--1----------------|--L----------------|-------------------||
--3----------------|--L----------------|-------------------||
-------------------|-------------------|-------------------||

Melody Guitar



     W                   W                   W                 
E||-------------------|-------------------|-------------------|
B||-------------------|-------------------|-------------------|
G||-------------------|-------------------|-------------------|
D||-------------------|-------------------|-------------------|
A||-------------------|-------------------|-------------------|
E||-------------------|-------------------|-------------------|


  W                   W                   W                   W                 
-------------------|-------------------|-------------------|-------------------|
-------------------|-------------------|-------------------|-------------------|
-------------------|-------------------|-------------------|-------------------|
-------------------|-------------------|-------------------|-------------------|
-------------------|-------------------|-------------------|-------------------|
-------------------|-------------------|-------------------|-------------------|


  W                   Q    E  E   Q.     S S    Q    E  E   E  E  E  E   
-------------------|-------3--4s--6----------|-------3--4s--6--4--3-----|
-------------------|-------------------------|-----------------------4--|
-------------------|-------------------------|--------------------------|
-------------------|-------------------------|--------------------------|
-------------------|-------------------------|--------------------------|
-------------------|-------------------------|--------------------------|


  W                   H        H           Q    E  E   H         
--1----------------|--------------------|-------3--4s--6--------|
-------------------|--------------------|-----------------------|
-------------------|--------------------|-----------------------|
-------------------|--------------------|-----------------------|
-------------------|--------------------|-----------------------|
-------------------|--------------------|-----------------------|


  Q    E  E   E  E   Q         W                   H        H         
-------3--4s--6-----15s----|--10----------------|--L-----------------|
--------------------13s----|---8----------------|--L-----------------|
---------------------------|--------------------|--------------------|
---------------------------|--------------------|--------------------|
---------------------------|--------------------|--------------------|
---------------------------|--------------------|--------------------|


  Q    E  E   H           Q    E  E   Q    E  E      W                 
-----------------------|--------------------------|-------------------|
-----------------------|--------------------------|-------------------|
-------0--1s--3--------|-------0--1s--3----0------|-------------------|
-----------------------|----------------------1s--|--3----------------|
-----------------------|--------------------------|-------------------|
-----------------------|--------------------------|-------------------|


  H        H           Q    E  E   H           S E.  E  E   Q    Q     
--------------------|-----------------------|-------------------------|
--------------------|-----------------------|--------------------3----|
--------------------|-------0--1s--3--------|--------0--1s--3---------|
--------------------|-----------------------|-------------------------|
--------------------|-----------------------|-------------------------|
--------------------|-----------------------|-------------------------|


  W                   H        H            E   E    E   E   H         
--1----------------|--------------------|--10--11s--13--11--10--------|
-------------------|--------------------|-----------------------------|
-------------------|--------------------|-----------------------------|
-------------------|--------------------|-----------------------------|
-------------------|--------------------|-----------------------------|
-------------------|--------------------|-----------------------------|


  Q     E   E    E   E   E   E     W                   H        H         
-------10--11s--13--11--10------|--8----------------|--------------------|
----------------------------11--|-------------------|--------------------|
--------------------------------|-------------------|--------------------|
--------------------------------|-------------------|--------------------|
--------------------------------|-------------------|--------------------|
--------------------------------|-------------------|--------------------|


  E  E   E  E  H           Q    E  E   E  E  E  E     W                 
------------------------|--------------------------|-------------------|
--1--3s--4--3--1--------|-------1--3s--4--3--1-----|-------------------|
------------------------|-----------------------1--|--3----------------|
------------------------|--------------------------|-------------------|
------------------------|--------------------------|-------------------|
------------------------|--------------------------|-------------------|


  H        H           E  E   E  E  H           Q    E  E   E  E  E  E   
--------------------|------------------------|--------------------------|
--------------------|--3--4s--6--4--3--------|-------3--4s--6--4--3-----|
--------------------|------------------------|-----------------------3--|
--------------------|------------------------|--------------------------|
--------------------|------------------------|--------------------------|
--------------------|------------------------|--------------------------|


  W                   H        H           E  E   E  E  H         
-------------------|--------------------|------------------------|
--1----------------|--------------------|--1--2s--4--2--1--------|
-------------------|--------------------|------------------------|
-------------------|--------------------|------------------------|
-------------------|--------------------|------------------------|
-------------------|--------------------|------------------------|


  E.  S E  E   E  E  E  E     Q    Q    Q    Q       Q    H        S  S S S   
---------------------------|----------------------|-----------------------2s-|
--------1--2s--4--2--1-----|-------3---------1----|---------------------4----|
------------------------1--|--0-------------------|-------3--------3h-4------|
---------------------------|------------3---------|--1-----------------------|
---------------------------|----------------------|--------------------------|
---------------------------|----------------------|--------------------------|


             PH                     
  H          H                      
--6--------<>6--------|-----------||
----------------------|-----------||
----------------------|-----------||
----------------------|-----------||
----------------------|-----------||
----------------------|-----------||



Duration Legend
---------------
W - whole
H - half
Q - quarter
E - 8th
S - 16th
. - note dotted
|-n-|  - n-tuplets


Tablature Legend
----------------
L - tied note
PH - pinch harmonic
h - hammer on
s - legato slide

2 comments on A Secret Sleeping In The Deep Sea

Hmmm

I'd like to see a solo guitar transcription of this :)

Hmm may make a Gp6

5

Hmm may make a Gp6 transcription for this for personal use, going to try adding a capo on the 3rd string. Looks like it would work, take a lot of the stretch out of the equation.