Login or Register to remove this ad. | Advertise Here

Good Night, Until Tomorrow (SongeLeReveur Version) (Final Fantasy VII) Guitar Tab

Submitted: Jul 19, 2010 by ForestMarth

0
Download | Listen
Game: Final Fantasy VII
Composer(s): Nobuo Uematsu
Style: 2 or more instruments, Transcription
Series: Final Fantasy

Click here for a video example.

AutoScroll: Slow | Medium | Fast
                Final Fantasy VII - Good Night, Until Tomorrow                  

Composed by : Nobuo Uematsu

Arranged by : Songe Le Rêveur

Tabbed by : ForestMarth

Platform : PlayStation



I dedicate this tab to Auriplane who encouraged me to put rythm in my tabs :-)




Guitar



      E   E   E   E   Q    Q        E   E   E   E   E   E   E   E   
E||------------------10---------|----------------------------------|
B||--------------11-------------|------------------11--------------|
G||----------12-----------------|--------------12------13--10------|
D||--10--13---------------------|------10--13------------------11--|
A||-----------------------------|--11------------------------------|
E||-----------------------------|----------------------------------|


   E   E   E   E   E   E   E   S  S     W                  
------------------10------13--12-11-|--10----------------||
--------------11------13------------|--------------------||
----------12------------------------|--------------------||
--10--13----------------------------|--------------------||
------------------------------------|--------------------||
------------------------------------|--------------------||




Ocarina



      Q     Q     Q    Q       Q    Q     Q    Q       W                 
E||--10---------------------|-----------------------|-------------------|
B||--------11----11----8----|--8--------------------|-------------------|
G||-------------------------|-------8----------8----|--8----------------|
D||-------------------------|------------10---------|-------------------|
A||-------------------------|-----------------------|-------------------|
E||-------------------------|-----------------------|-------------------|


  W                  
-------------------||
-------------------||
--L----------------||
-------------------||
-------------------||
-------------------||




Duration Legend
---------------
W - whole
H - half
Q - quarter
E - 8th
S - 16th
T - 32nd
X - 64th
. - note dotted
|-n-|  - n-tuplets


Tablature Legend
----------------
L - tied note