Login or Register to remove this ad. | Advertise Here

Costa Del Sol (Quartet) (Final Fantasy VII) Bass/Guitar Tab

Submitted: Jun 10, 2010 by TheDoomOfAllFires

5
Average: 5 (2 votes)
Download | Listen
Game: Final Fantasy VII
Composer(s): Nobuo Uematsu
Style: 2 or more instruments, Arrangement, Fingerstyle
Series: Final Fantasy

AutoScroll: Slow | Medium | Fast
Title: Costa Del Sol (Quartet)
Artist: Nobuo Uematsu
Album: FF VII
Music: Nobuo Uematsu
Copyright: Nobuo Uematsu / Square-Enix
Tabber: TheDoomOfAllFires
Tempo = 120
Standard Tuning

Hope you like it ! ^^


Guitar #1 :

     ^                                                       
E |--3-----3--------3-----2----|-----2-----2--------2-------|
B |--5-----5--------5-----5----|-----5-----5--------5-------|
G |--5-----5--------5-----5----|-----5-----5--------5-------|
D |----------------------------|--0L-0L-0-----0--------0----|
A |--0-----------0-----0-------|----------------------------|
E |----------------------------|----------------------------|

                                                          
--3-----3--------3-----2----|-----2-----2--------2-------|
--5-----5--------5-----5----|-----5-----5--------5-------|
--5-----5--------5-----5----|-----5-----5--------5-------|
----------------------------|--0L-0L-0-----0--------0----|
--0-----------0-----0-------|----------------------------|
----------------------------|----------------------------|

  ^                                                       
--3-----3--------3-----2----|-----2-----2--------2-------|
--5-----5--------5-----5----|-----5-----5--------5-------|
--5-----5--------5-----5----|-----5-----5--------5-------|
----------------------------|--0L-0L-0-----0--------0----|
--0-----------0-----0-------|----------------------------|
----------------------------|----------------------------|

                                                           
--3-----3--------3-----2----|-----2-----2--------2-------||
--5-----5--------5-----5----|-----5-----5--------5-------||
--5-----5--------5-----5----|-----5-----5--------5-------||
----------------------------|--0L-0L-0-----0--------0----||
--0-----------0-----0-------|----------------------------||
----------------------------|----------------------------||

                                                         
-3-----3--------3-----2----|-----2-----2--------2-------|
-5-----5--------5-----5----|-----5-----5--------5-------|
o5-----5--------5-----5----|-----5-----5--------5-------|
o--------------------------|--0L-0L-0-----0--------0----|
-0-----------0-----0-------|----------------------------|
---------------------------|----------------------------|

  ^
--3-----3--------3-----2----|-----2-----2--------2-------|
--5-----5--------5-----5----|-----5-----5--------5-------|
--5-----5--------5-----5----|-----5-----5--------5-------|
----------------------------|--0L-0L-0-----0--------0----|
--0-----------0-----0-------|----------------------------|
----------------------------|----------------------------|


--1-----1--------1-----0----|-----0-----0--------0-------|
--3-----3--------3-----3----|-----3-----3--------3-------|
--3-----3--------3-----3----|-----3-----3--------3-------|
----------------------------|----------------------------|
----------------------------|--3-----------3--------3----|
--3-----------3-----3-------|----------------------------|


--1-----1--------1-----0----|-----0-----0--------0------||
--3-----3--------3-----3----|-----3-----3--------3------||
--3-----3--------3-----3----|-----3-----3--------3-----o||
----------------------------|--------------------------o||
----------------------------|--3-----------3--------3---||
--3-----------3-----3-------|---------------------------||


-----0-----0--------0-------|--0-----0--------0-----1----|
-----3-----3--------3-------|--1-----1--------1-----3----|
-----3-----3--------3-------|--2-----2--------2-----2----|
----------------------------|----------------------------|
--3-----------3--------3----|----------------------------|
----------------------------|--1-----------1-----1-------|


-----1-----1--------1-------|--0-----0--------0-----1----|
-----3-----3--------3-------|--1-----1--------1-----3----|
-----2-----2--------2-------|--2-----2--------2-----2----|
----------------------------|----------------------------|
--1-----------1--------1----|----------------------------|
----------------------------|--1-----------1-----1-------|


-----1-----1--------1-------|--2-----2--------2-----3----|
-----3-----3--------3-------|--3-----3--------3-----5----|
-----2-----2--------2-------|--4-----4--------4-----6----|
----------------------------|----------------------------|
--1-----------1--------1----|----------------------------|
----------------------------|--3-----------3-----3-------|


-----3-----3--------3-------|--2-----2--------2-----3----|
-----5-----5--------5-------|--3-----3--------3-----5----|
-----6-----6--------6-------|--4-----4--------4-----6----|
----------------------------|----------------------------|
--0-----------0--------0----|----------------------------|
----------------------------|--3-----------3-----3-------|


-----3-----3----------------||
-----5-----5----------------||
-----6-----6----------------||
----------------------------||
--0-----------0-------------||
----------------------------||


__________________________________________________________
__________________________________________________________


Guitar #2 :


E |----|----|----|----|----|----|----|--------------------12-10L--||
B |----|----|----|----|----|----|----|-----------------13---------||
G |----|----|----|----|----|----|----|----------------------------||
D |----|----|----|----|----|----|----|----------------------------||
A |----|----|----|----|----|----|----|----------------------------||
E |----|----|----|----|----|----|----|----------------------------||


-10------------------------|----------------------------|
----------------8--9--10L--|--10~---------------8--10L--|
o--------------------------|-----------------9----------|
o--------------------------|----------------------------|
---------------------------|----------------------------|
---------------------------|----------------------------|


-----------------8-----10L--|--10----------------8--7----|
--10~---10-8--10------------|-----10L------10-10---------|
----------------------------|----------------------------|
----------------------------|----------------------------|
----------------------------|----------------------------|
----------------------------|----------------------------|


--6L----------6-------------|----------------------------|
-----------------6--7--8L---|--8~-------------8--10-11L--|
----------------------------|----------------------------|
----------------------------|----------------------------|
----------------------------|----------------------------|
----------------------------|----------------------------|


-----------8--10-13----12L--|--12~------------8--12-10--||
--11-10-11------------------|---------------------------||
----------------------------|--------------------------o||
----------------------------|--------------------------o||
----------------------------|---------------------------||
----------------------------|---------------------------||


-----------------12----10---|--12---|-----------------15----13---|--12---|
----------------------------|-------|----------------------------|-------|
----------------------------|-------|----------------------------|-------|
----------------------------|-------|----------------------------|-------|
----------------------------|-------|----------------------------|-------|
----------------------------|-------|----------------------------|-------|


-----------------12----13---|--14---|-----------------17----15---|--14---|----||
----------------------------|-------|----------------------------|-------|----||
----------------------------|-------|----------------------------|-------|----||
----------------------------|-------|----------------------------|-------|----||
----------------------------|-------|----------------------------|-------|----||
----------------------------|-------|----------------------------|-------|----||


________________________________________________________________________________
________________________________________________________________________________


Guitar #3 : 


E |----|----|----|----|----|----|----|----||---|----|----|----|----|----|----|
B |----|----|----|----|----|----|----|----||---|----|----|----|----|----|----|
G |----|----|----|----|----|----|----|----||o--|----|----|----|----|----|----|
D |----|----|----|----|----|----|----|----||o--|----|----|----|----|----|----|
A |----|----|----|----|----|----|----|----||---|----|----|----|----|----|----|
E |----|----|----|----|----|----|----|----||---|----|----|----|----|----|----|


---||----|----------------------------|--10------------------------|
---||----|----------------------------|-----11-10------------------|
--o||----|----------------------------|-----------10L10~-----------|
--o||----|-----------------------12---|----------------------------|
---||----|----------------------------|----------------------------|
---||----|----------------------------|----------------------------|


----------------------------|--10------------------------|
----------------------------|-----11-10------------------|
----------------------------|-----------10L10~-----------|
-----------------------12---|----------------------------|
----------------------------|----------------------------|
----------------------------|----------------------------|


----------------------------|--9-------------------------|
----------------------------|-----10-8-------------------|
----------------------------|-----------9L-9~------------|
-----------------------11---|----------------------------|
----------------------------|----------------------------|
----------------------------|----------------------------|


----------------------------|--9-------------------------||
----------------------------|-----10-8-------------------||
----------------------------|-----------9L-9~------------||
-----------------------11---|----------------------------||
----------------------------|----------------------------||
----------------------------|----------------------------||


___________________________________________________________
___________________________________________________________


Bass : 


G |----|----|----|----------------------------|----------------------------|
D |----|----|----|--0--------0--0-------------|-----------------------0L---|
A |----|----|----|----------------------------|--0-----------0-----0-------|
E |----|----|----|-----------------2--3--4----|----------------------------|


----------------------------|----------------------------|
--0--0-----0--0-------------|-----------------------0L---|
----------------------------|--0-----------0-----0-------|
-----------------2--3--4----|----------------------------|


----------------------------||---------------------------|
--0--0-----0--0-------------||o---------------------0L---|
----------------------------||o0-----------0-----0-------|
-----------------2--3--4----||---------------------------|


----------------------------|----------------------------|
--0--0-----0--0-------------|-----------------------0L---|
----------------------------|--0-----------0-----0-------|
-----------------2--3--4----|----------------------------|


----------------------------|----------------------------|
--0--0-----0--0-------------|----------------------------|
--------------------0-------|-----------------------3L---|
-----------------------4----|--3-----------3-----3-------|


----------------------------|----------------------------|
----------------------------|----------------------------|
--3--3-----3--3-------------|-----------------------3L---|
-----------------0--1--2----|--3-----------3-----3-------|


---------------------------||----------------------------|
--------------------------o||----------------------------|
--3--3-----3--3L-3L-3L-3L-o||--3--3-----3--3-------------|
-----------------0--1--2---||--------------------3-------|


----------------------------|----------------------------|
----------------------------|----------------------------|
-----------------------1L---|--1--1-----1--1-----1-------|
--1-----------1-----1-------|----------------------------|


----------------------------|----------------------------|
----------------------------|----------------------------|
-----------------------1L---|--1--1-----1--1-----1-------|
--1-----------1-----1-------|----------------------------|


----------------------------|----------------------------|
----------------------------|----------------------------|
-----------------------0L---|--0--0-----0--0-----0-------|
--3-----------3-----3-------|----------------------------|


----------------------------|----------------------------||
----------------------------|----------------------------||
-----------------------0L---|--0--0-----0--0-------------||
--3-----------3-----3-------|----------------------------||






Legend
L - tied note
x - dead note
h - hammer on/pull off
b - bend
s - slide
~ - vibrato
g - ghost note
> - accentuated note
t - trill
M - palm mute
. - staccato
P - popping (bass)
S - slapping (bass)
+ - tapping
W - wide vibrato
< - fade in
w - whammy bar
= - tremolo picking
v - brush up
^ - brush down
V - pick stroke up
n - pick stroke down

2 comments on Costa Del Sol (Quartet)

Sir TheDoomOfAllFires! I'm a

5

Sir TheDoomOfAllFires! I'm a huge fun of your multi-guitar arrangements, and I'd really like to listen and try this one, but I don't know what to do with the .gpx format.

What do I have to do to open it on Guitar Pro, sir?

You need Guitar Pro 6 to open

You need Guitar Pro 6 to open this file.
Hmmm, It seems a lot of people still use Guitar Pro 5, I should put a gp5 file in the zip aswell.
I'll do it later.