Login or Register to remove this ad. | Advertise Here

Costa Del Sol (Final Fantasy VII) Guitar Tab

Submitted: Jul 30, 2009 by auriplane (Last updated: Feb 04, 2010)

4.81818
Average: 4.8 (11 votes)
Download | Listen
Game: Final Fantasy VII
Composer(s): Nobuo Uematsu
Style: Arrangement, Fingerstyle
Series: Final Fantasy

AutoScroll: Slow | Medium | Fast
              Final Fantasy 7 - Costa Del Sol GUITAR TAB
                        Song by Nobuo Uematsu

          Arranged & tabbed by auriplane (crystal@panix.com)
                            On May 7, 2009


This arrangement is supposed to be as simple as I could make it
without losing the feel of the original.  This is because I'm bad
at guitar, so I like easy things ;-)  Hopefully it is a good tab
for fingerstyle beginners.

Also, I had deleted this tab when it got rated 1-star, but people
asked me to re-upload, so I took the opportunity to revise the GP5
and fix a couple notes toward the end.  Sorry about deleting!  I'm
childish sometimes.


Standard tuning, no capo.

e |3---3-----3---2-|--2---2-----2---|3---3-----3---2-|--2---2-----2---|
B |5---5-----5---3-|--3---3-----3---|5---5-----5---3-|--3---3-----3---|
G |----------------|----------------|----------------|----------------|
D |----------------|0-------0-------|----------------|0-------0-------|
A |0-------0-------|----------------|0-------0-------|----------------|
E |----------------|----------------|----------------|----------------|

e |3---3-----3---2-|--2---2---------|3---3-----3---2-|--2---2-----0---|
B |5---5-----5---3-|--3---3---------|5---5-----5---3-|--3---3---1---3-|
G |----------------|----------------|----------------|----------------|
D |----------------|0-------0-------|----------------|0-------0-------|
A |0-----0-0-------|----------------|0-----0-0-------|----------------|
E |----------------|----------2-3-4-|----------------|----------------|

e |----------------|----------------|----------------|----------------|
B |L---3-----------|----------------|----------1---3-|------------1-0-|
G |----------0-1-2-|--2---2-----0-2-|----2-0-2-------|--2-------2-----|
D |----------------|0-------0-2-----|----------------|0-----0-0-------|
A |0-----0-0-------|----------------|0-------0-------|----------------|
E |----------------|----------------|----------------|----------------|

e |----------------|----------------|----------------|----------------|
B |----------------|----------------|--------3-6---5-|--5---------5-3-|
G |3---3-----------|--0---0---0-2-3-|----3-5---------|----------5-----|
D |----------3-4-5-|----------------|----------------|----------------|
A |----------------|3-------3-------|----------------|3-----3-3-------|
E |3-----3-3-------|----------------|3-------3-------|----------------|

e |----------------|----------------|----------------|----------------|
B |L---3-----------|----------------|----------1---3-|------------1-0-|
G |----------0-1-2-|--2---2-----0-2-|----2-0-2-------|--2-------2-----|
D |----------------|0-------0-2-----|----------------|0-----0-0-------|
A |0-----0-0-------|----------------|0-------0-------|----------------|
E |----------------|----------------|----------------|----------------|

e |----------------|----------------|----------------|----------------|
B |----------------|----------------|--------3-6---5-|--5-------5---3-|
G |3---3-----------|--0---0---0-2-3-|----3-5---------|----------------|
D |----------3-4-5-|----------------|----------------|----------------|
A |----------------|3-------3-------|----------------|3-----3-3-------|
E |3-----3-3-------|----------------|3-------3-------|------------3---|

e |0---------------|----------3---1-|0---------------|----------0---1-|
B |----------------|3---------------|----------------|3---------------|
G |----------------|--3-2-----------|----------------|--3-2-----------|
D |----------------|------3---------|----------------|------3---------|
A |----------------|1-------1-------|----------------|1-------1-------|
E |1-----1-1-----1-|----------------|1-----1-1-----1-|----------------|

e |2---------------|----------5---3-|2---------------|----------------|
B |----------------|2---------------|----------------|2---------------|
G |----------------|--2-0-----------|----------------|--2-0-----------|
D |----------------|------2---------|----------------|------2---------|
A |----------------|0-------0-------|----------------|0-----0---------|
E |3-----3-3-----3-|----------------|3-----3-3-----3-|----------------|

3 comments on Costa Del Sol

Nice tab and here goes 5 star

5

Nice tab and here goes 5 star shot :)

ooo this is a good tab, auri

5

ooo this is a good tab, auri :)... easy to play, but it still retains all of its character and charm. It does look like a great song for those picking up fingerstyle... it has that bossa nova type bass line which should be great for those wanting to develop finger/thumb independence.

Great tab, I love it!

5

Such a fun tune to play! Very clean and simple tab of the song. By the way, there's a 20 minute loop of this song I found on YouTube (just search the title) that's great for practice.