Login or Register to remove this ad. | Advertise Here

Cosmo Canyon (Final Fantasy VII) Bass Tab

Submitted: Feb 10, 2010 by auriplane (Last updated: Dec 04, 2010)

5
Average: 5 (1 vote)
Download | Listen
Game: Final Fantasy VII
Composer(s): Nobuo Uematsu
Style: Transcription
Series: Final Fantasy

This song is also called Valley of the Fallen Star

AutoScroll: Slow | Medium | Fast
                               Final Fantasy 7 - Cosmo Canyon BASS TAB
                                      Composed by Nobuo Uematsu
                             
                                Tabbed by auriplane (crystal@panix.com)




Four-string bass, standard tuning.  
Rest for two measures at the beginning.




        Intro        


   S S S S S E.    Q       E   E    S S S S S E.    H                S S S S S E.    Q       E   E
G |--------------------------------|--------------------------------|--------------------------------|
D |--------------------------------|--------------------------------|5h7-7-7-7-----------------------|
A |5h7-7-7-7-------------------5---|5h7-7-7-7-----------------------|----------------------------5---|
E |------------------------7-------|--------------------------------|------------------------7-------|


   S S S S S E.    Q       E   E    S S S S S E.    H
G |--------------------------------|--------------------------------|
D |--------------------------------|--------------------------------|
A |5h7-7-7-7-------------------5---|5h7-7-7-7-----------------------|
E |------------------------7-------|--------------------------------|


        Part A  --  Play this part twice.


   S S S S S E.    Q       E   E    S S S S S E.    Q       E   E    S S S S S E.    Q       E   E
G |--------------------------------|----------------------------4---|--------------------------------|
D |--------------------------------|4h5-5-5-5---------------5-------|5h7-7-7-7---------------7-------|
A |5h7-7-7-7---------------7---5---|--------------------------------|----------------------------5---|
E |--------------------------------|--------------------------------|--------------------------------|


   S S S S S E.    Q       E   E    S S S S S E.    Q       E   E
G |--------------------------------|--------------------------------|
D |--------------------------------|--------------------------------|
A |5h7-7-7-7---------------7---5---|5h7-7-7-7---------------7---5---|
E |--------------------------------|--------------------------------|


        Part B


   S S S S S E.    Q       E   E    S S S S S E.    Q       E   E    
G |--------------------------------|--------------------------------|
D |--------------------------------|--------------------------------|
A |5h7-7-7-7-------------------5---|5h7-7-7-7-------------------5---|
E |------------------------7-------|------------------------7-------|


   S S S S S E.    Q       Q        S S S S S E.    Q       E   E
G |--------------------------------|--------------------------------|
D |5h7-7-7-7-----------------------|4h5-5-5-5-----------------------|
A |------------------------3-------|----------------------------5---|
E |--------------------------------|------------------------7-------|


        Part C


   S S S S S E.    Q       E   E    S S S S S E.    Q       E   E    H               H
G |--------------------------------|--------------------------------|--------------------------------|
D |--------------------------------|--------------------------------|7-------------------------------|
A |5h7-7-7-7-------------------5---|5h7-7-7-7-------------------5---|----------------3---------------|
E |------------------------7-------|------------------------7-------|--------------------------------|


   E   S S E   S S E   S S E   S S  E   S S E   S S E   S S E   S S
G |--------------------------------|--------------------------------|
D |--------------------------------|--------------------------------|
A |3---3-3-3---3-3-3---3-3-3---3-3-|3---3-3-3---3-3-3---3-3-3---3-3-|
E |--------------------------------|--------------------------------|


        Part D


   S S S S S E.    Q       E   E    S S S S S E.    Q       E   E    
G |--------------------------------|--------------------------------|
D |--------------------------------|--------------------------------|
A |5h7-7-7-7-------------------5---|5h7-7-7-7-------------------5---|
E |------------------------7-------|------------------------7-------|


   S S S S S E.    Q       E   E    S S S S S E.    Q       E   E
G |--------------------------------|--------------------------------|
D |--------------------------------|--------------------------------|
A |5h7-7-7-7-------------------5---|5h7-7-7-7-------------------5---|
E |------------------------7-------|------------------------7-------|


        Repeat back to Part A.




Duration Legend
---------------
W - whole
H - half
Q - quarter
E - 8th
S - 16th
. - note dotted


Tablature Legend
----------------
h - hammer on